Oops, an error
Loading. Please wait.

Rootless Tree intro tab

version 2
version 2

Intro

Whole song

Interactive

57,096 views 24 this week
2 commentsread comments
1 2 3 4 5
x 16
add to favorites
×
Save as Personal and add changes to this tab that will be seen only by you. Learn more ›
×
You can save this tab as Personal to edit and correct it or add notes. All changes will be seen only by you. Learn more »
launch autoscroll
font size
0
reset
how to read this tab
guitar tuner
edit
Autoscroll
slow
fast
+/-
esc
set tempo
stop
Standard Tuning
Capo 4

E|--------------|---------------|-----------------|-----------------|
B|--------------|--------3------|-----------------|-----------------|
G|--------0---0-|-----0---0---0-|---------2-------|---------0-------|
D|------4-------|---0-------0---|------0---<5>-00-|---0---4-----4---|
A|----2-----2---|-3-------------|----2------------|-----------------|
E|--0-----------|---------------|--3--------------|-2---2-----2-----|

E|--------------|---------------|-----------------|-----------------|
B|--------------|--------3------|-----------------|-----------------|
G|--------0---0-|-----0---0---0-|---------2-------|---------0-------|
D|------4-------|---0-------0---|------0---<5>-00-|---0---4-----4---|
A|---2------2---|-3-------------|----2------------|-----------------|
E|--0-0---------|---------------|--3--------------|-2---2-----2-----|

E|--------------|---------------|-----------------|-----------------|
B|--------------|--------3------|-----------------|-----------------|
G|--------0---0-|-----0---0---0-|---------2-------|---------0-------|
D|------4-------|---0-------0---|------0---<5>-00-|---0---4-----4---|
A|---2------2---|-3-------------|----2------------|-----------------|
E|--0-0---------|---------------|--3--------------|-2---2-----2-----|

E|--------------|---------------|--------------------|-----------------|
B|--------------|--------3------|--------------------|-----------------|
G|--------0---0-|-----0---0---0-|--------------------|---------0-------|
D|------4-------|---0-------0---|----<5>-00-<5><5>-0-|---0---4-----4---|
A|---2------2---|-3-------------|--------------------|-----------------|
E|--0-0---------|---------------|-0h3----------------|-2---2-----2-----|


************************************

| h  Hammer-on


************************************
Suggest correction
Creating personal tab
Creating personal tab
You can edit any tab online and save it as your Personal.

You can edit, replace or remove any tab part or add personal notes – all changes will be seen only by you.

Personal tabs can be accessed anytime from any device, even offline.
Learn more »
comments
print report bad tab
2 comments total.
0 reply
Pedalboard 26 Aug 04, 2007 08:37 AM

Very nice tab. I've only found like 2 notes to be wrong.

That's a good thing.

0 reply
Apollo65 189 Aug 11, 2009 01:29 PM

very very good. the harmonic on the fifth could be replaced with a hard note on the third fret of the B string, just to make it a little more clear, but excellent tab

guest
You may want to rate the tab now too:
select rating
Wanna post a correction for this tab? Suggest correction