Oops, an error
Loading. Please wait.

Volcano Tab

version 1
version 1

Intro

  • After looking at some other intro tabs for "volcan... Show more

Whole song

Interactive

20,465 views 9 this week
2 commentsread comments
1 2 3 4 5
x 3
add to favorites
launch autoscroll
font size
0
reset
how to read this tab
guitar tuner
×
Best way to learn
"Volcano"
Autoscroll
slow
fast
+/-
esc
set tempo
stop
---------------------------------------------------------------
                 Damien Rice  "Volcano" - the cello part
-------------------------------------------------------------------
Tabbed by: Mose
Email: cmoser@uiuc.edu

This is the intro cello part at the beginning of the song and after the chorus,
transcribed to guitar...slide as much as possible

Tuning: standard
chords: Am,G,F

e|-------------------------------------------------------------------|
B|--/10-8---3/6-------/10-8---13-10-----/10-8--3/6---3-5-5-----------|
G|---------------------------------------------------------5-4-2-----|
D|-------------------------------------------------------------------|
A|-------------------------------------------------------------------|
E|-------------------------------------------------------------------|
  ----or if you wanna play lower bass notes----
e|--------------------------------------------------------------|
B|--------------------------------------------------------------|
G|--------------------------------------------------------------|
D|--/7-5-------------/7-5--10-7------/7-5-----------------------|
A|--------5/8-------------------------------5/8---5-7-7---------|
E|------------------------------------------------------8-7-5---|
Suggest correction
Give kudos to tab author, rate the tab!
1 2 3 4 5
comments
print report bad tab
2 comments total.
0 reply
Computer07 40 Jun 14, 2005 08:00 PM

wrong

+2 reply
oosabaj 30 Jun 05, 2008 04:08 PM

maybe??

e|-------------------------------3-----------------------------------
B|-----------5/3------------5/3-----5-------5/3-----------0h1p0------
G|------------------0h2----------------------------0h2---------------
D|-------------------------------------------------------------------
A|-------------------------------------------------------------------
E|-------------------------------------------------------------------

guest
You may want to rate the tab now too:
select rating
Wanna post a correction for this tab? Suggest correction