Oops, an error
Loading. Please wait.

S Dlana Boga Pala Si Tab

10 views 1 this week
no commentswrite comment
1 2 3 4 5
3 more votes to show rating
add to favorites
launch autoscroll
font size
0
reset
how to read this tab
guitar tuner
Autoscroll
slow
fast
+/-
esc
set tempo
stop
Help us to improve Ultimate-Guitar.com Take our survey!
×
Author
Difficulty
intermediate
e|---------------------------------------------------------------------------|
B|---------------------------------------------------------------------------|
G|---------------------------------------------------------------------------|
D|-5-----5-7b----5--7-8b8-7-5---------5-7-5----------------------------------|
A|---5-7-------5--------------5---5-7-------5--------------------------------|
E|---------------------------------------------------------------------------|

e|---------------------------------------------------------------------------|
B|---------------------------------------------------------------------------|
G|---------------------------------------------------------------------------|
D|-5-5-----5--7-9-7-5---5---7-9--7-9--9h10-9-7----7--------------------------|
A|-----5-7------------7------------------------10----------------------------|
E|---------------------------------------------------------------------------|

e|---------------------------------------------------------------------------|
B|---------------------------8-8---8-10-10-8---------------------------------|
G|-----7---9-7---7-9-7-9---------9-----------9--7----------------------------|
D|-7/9---9-----9-------------------------------------------------------------|
A|---------------------------------------------------------------------------|
E|---------------------------------------------------------------------------|


e|---------------------------------------------------------------------------|
B|-8-8---8-10-10-8---8-10-10-8----------10-8------------8--------------------|
G|-----9-----------9------------9--7---------9-7-----------------------------|
D|-----------------------------------------------9-7-5-----------------------|
A|---------------------------------------------------------------------------|
E|---------------------------------------------------------------------------|



************************************

| b  Bend
| h  Hammer-on
| /  Slide up

************************************
Suggest correction
Give kudos to tab author, rate the tab!
1 2 3 4 5
comments
print report bad tab
guest
You may want to rate the tab now too:
select rating
Wanna post a correction for this tab? Suggest correction