Oops, an error
Loading. Please wait.

Rebel Scum tab

323 views 1 this week
2 commentsread comments
1 2 3 4 5
1 last vote to show rating
add to favorites
×
Save as Personal and add changes to this tab that will be seen only by you. Learn more ›
×
You can save this tab as Personal to edit and correct it or add notes. All changes will be seen only by you. Learn more »
launch autoscroll
font size
0
reset
how to read this tab
guitar tuner
edit
Autoscroll
slow
fast
+/-
esc
set tempo
stop
Author
Title: Rebel Scum
Artist: Damn Dirty Apes
Genre: Post Rock
Tabbed: quipaddler
Song Download: http://www.noisemonkies.com/audio/rebel.mp3

#Tab for one guitar playing

Intro
                   Bm                D
-------------222-|-222-222-222-----|-------------------------|
-------------333-|-333-333-333--3--|---------------------3---|
-------------444-|-444-444-444-----|-------------------------|
-------------444-|-444-444-444-4-4-|---4-----4-----4---4---4-|
-------------222-|-222-222-222-----|-5---5-5---5-5---5-------|
7^^^^^^^^^^^^^^^-|-----------------|-------------------------|


   D
e|-------------------------||
b|-------------------------||
g|---------------------2---||
d|---4-----4-----4---4---4-||
a|-5---5-5---5-5---5-------||
e|-------------------------||



Verse 1
   Bm                         Bm
e|--------------------------|--------------------------|
b|-------3------------------|-------3------------------|
g|---4-----4-----4------2---|---4-----4-----4------2---|
d|-----4-----4-----4-0/4--4-|-----4-----4-----4-0/4--4-|
a|-2-----------2------------|-2-----------2------------|
e|--------------------------|--------------------------|

   D                          D
e|--------------------------|--------------------------|
b|-------3----------------0-|-------3----------------0-|
g|----------------------2---|----------------------2---|
d|---4-----4-----4---0/4----|---4-----4-----4---0/4----|
a|-5---5-----5-5---5--------|-5---5-----5-5---5--------|
e|--------------------------|--------------------------|

   Bm                         Bm
e|--------------------------|--------------------------|
b|-------3-----2------------|-------3-----2------------|
g|---4-----4-----4------2---|---4-----4-----4------2---|
d|-----4-----4-----4-0/4--4-|-----4-----4-----4-0/4--4-|
a|-2------------------------|-2------------------------|
e|--------------------------|--------------------------|

   D                          D
e|--------------------------|--------------------------|
b|-------3-----2----------0-|-------3-----2----------0-|
g|----------------------2---|----------------------2---|
d|---4-----4-----4---0/4----|---4-----4-----4---0/4----|
a|-5---5-----5-----5--------|-5---5-----5-----5--------|
e|--------------------------|--------------------------|

   Bm
e|-------------0-----0-----|
b|-------3-------3-----3---|
g|---4-----4-------4-----4-|
d|-----4-----4-------------|
a|-2-----------------------|
e|-------------------------|


   Em                        F#m                       Bm
e|-------------------------|-------------------------|-------------0-----0-----|
b|-------3-----2-----0-----|-------3-----2-----0-----|-------3-------3-----3---|
g|---0-----0-----0-----0---|---2-----2-----2-----2---|---4-----4-------4-----4-|
d|-----2-----2-----2-----2-|-----4-----4-----4-----4-|-----4-----4-------------|
a|-------------------------|-------------------------|-2-----------------------|
e|-0-----------------------|-2-----------------------|-------------------------|


  G                          Em                        A
e|-------------------------|-------------------------|-------------------------|
b|-0-----3-----2-----0-----|-0-----3-----2-----0-----|-------0-----2-----3-----|
g|---0-----0-----0-----0---|---0-----0-----0-----0---|-----2---2-----2-----2---|
d|-----0-----0-----0-----0-|-----2-----2-----2-----2-|---2-------2-----2-----2-|
a|-------------------------|-------------------------|-0-----------------------|
e|-3-----------------------|-0-----------------------|-------------------------|


                                     |Verse 2
   Bm                Bm              | Bm
e|-222-222-222-222-|-222-222-222-222-|-------------0-----0-----|
b|-333-333-333-333-|-333-333-333-333-|-------3-------3-----3---|
g|-444-444-444-444-|-444-444-444-444-|---4-----4-------4-----4-|
d|-444-444-444-444-|-444-444-444-444-|-----4-----4-------------|
a|-222-222-222-222-|-222-222-222-222-|-2-----------------------|
e|-----------------|-----------------|-------------------------|


   D                         D
e|-------------------------|-------------------------|
b|-------------------------|-------------------------|
g|-------0-----------0-----|-------0-----------0-----|
d|---4-----4-----4-----4---|---4-----4-----4-----4---|
a|-5---5-----5-5---5-----5-|-5---5-----5-5---5-----5-|
e|-------------------------|-------------------------|


   Bm                         Bm
e|-------------0------------|-------------0------------|
b|-------3-------3------3---|-------3-------3------3---|
g|---4-----4-------4--------|---4-----4-------4--------|
d|-----4-----4-------0/4--4-|-----4-----4-------0/4--4-|
a|-2------------------------|-2------------------------|
e|--------------------------|--------------------------|


   D                         D
e|-------------------------|-------------------------|
b|-------------------------|-------------------------|
g|-------0-----------0-----|-------0-----------0-----|
d|---4-----4-----4-----4---|---4-----4-----4-----4---|
a|-5---5-----5-5---5-----5-|-5---5-----5-5---5-----5-|
e|-------------------------|-------------------------|


   Bm
e|-------------0-----0-----|
b|-------3-------3-----3---|
g|---4-----4-------4-----4-|
d|-----4-----4-------------|
a|-2-----------------------|
e|-------------------------|


   Em                        F#m                       Bm
e|-------------------------|-------------------------|-------------0-----0-----|
b|-------3-----2-----0-----|-------3-----2-----0-----|-------3-------3-----3---|
g|---0-----0-----0-----0---|---2-----2-----2-----2---|---4-----4-------4-----4-|
d|-----2-----2-----2-----2-|-----4-----4-----4-----4-|-----4-----4-------------|
a|-------------------------|-------------------------|-2-----------------------|
e|-0-----------------------|-2-----------------------|-------------------------|


   G                         Em                        A
e|-------------0-----0-----|-------------0-----0-----|-000-000-000-000-|
b|-0-----3-------3-----3---|-0-----3-------3-----3---|-222-000-222-333-|
g|---0-----0-------0-----0-|---0-----0-------0-----0-|-222-222-222-222-|
d|-----0-----0-------------|-----2-----2-------------|-222-222-222-222-|
a|-------------------------|-------------------------|-000-000-000-000-|
e|-3-----------------------|-0-----------------------|-----------------|


with distortion

*
e||----------------------------|---------------------------|
b||----------------------------|---------------------------|
g||-------12-12-12-------0-2-0-|-------12-12-12-------11^^-|
d||-9-9-9-10-10-10-9.----0-2-0-|-9-9-9-10-10-10-9.----11^^-|
a||-9-9-9-10-10-10-9.----0-0-0-|-9-9-9-10-10-10-9.-----9^^-|
e||-7-7-7----------7.----------|-7-7-7----------7.---------|


e|----------------------------|---------------------------||*
b|----------------------------|---------------------------||
g|-------12-12-12-------0-2-0-|-------12-12-12-------11^^-||
d|-9-9-9-10-10-10-9.----0-2-0-|-9-9-9-10-10-10-9.----11^^-||
a|-9-9-9-10-10-10-9.----0-0-0-|-9-9-9-10-10-10-9.-----9^^-||
e|-7-7-7----------7.----------|-7-7-7----------7.---------||


   Bm                           D
e|----------------------------|----------------------------|
b|----------------------------|----------------------------|
g|-------------------11-11-11-|-7-777-7-777-7-777-11-11-11-|
d|-9-999-9-999-9-999-11-11-11-|-7-777-7-777-7-777-11-11-11-|
a|-9-999-9-999-9-999--9--9--9-|-5-555-5-555-5-555--9--9--9-|
e|-7-777-7-777-7-777----------|----------------------------|

   D                            Bm
e|----------------------------|-------------------------|
b|----------------------------|-------------------------|
g|-7-777-7-777-7-777-11-11-11-|-------------------0-2-0-|
d|-7-777-7-777-7-777-11-11-11-|-9-999-9-999-9-999-0-2-0-|
a|-5-555-5-555-5-555--9--9--9-|-9-999-9-999-9-999-0-0-0-|
e|----------------------------|-7-777-7-777-7-777-------|

   Bm                           D
e|----------------------------|----------------------------|
b|----------------------------|----------------------------|
g|-------------------11-11-11-|-7-777-7-777-7-777-11-11-11-|
d|-9-999-9-999-9-999-11-11-11-|-7-777-7-777-7-777-11-11-11-|
a|-9-999-9-999-9-999--9--9--9-|-5-555-5-555-5-555--9--9--9-|
e|-7-777-7-777-7-777----------|----------------------------|


   D                            Bm
e|----------------------------|-------------------------|
b|----------------------------|-------------------------|
g|-7-777-7-777-7-777-11-11-11-|-------------------------|
d|-7-777-7-777-7-777-11-11-11-|-9-999-9-999-9-999-9-999-|
a|-5-555-5-555-5-555--9--9--9-|-9-999-9-999-9-999-9-999-|
e|----------------------------|-7-777-7-777-7-777-7-777-|


   Em                        F#m
e|-------7----10\7---7-----|----------9------12\9----9-------|
b|---8-----8-------8---8---|----10------10--------10---10----|
g|-9---9-----9-----------9-|-11----11------11-------------11-|
d|-------------------------|---------------------------------|
a|-------------------------|---------------------------------|
e|-------------------------|---------------------------------|


   Bm                                   G
e|----------10------12\10----10-------|----------10------12\10----10-------|
b|----12-------12---------12----12----|----12-------12---------12----12----|
g|-11----11-------11---------------11-|-12----12-------12---------------12-|
d|------------------------------------|------------------------------------|
a|------------------------------------|------------------------------------|
e|------------------------------------|------------------------------------|


   Em                        A
e|-------7----10\7---7-----|---------7------9------10------|
b|---8-----8-------8---8---|-10---10---10-----10------10---|
g|-9---9-----9-----------9-|----9---------9------9-------9-|
d|-------------------------|-------------------------------|
a|-------------------------|-------------------------------|
e|-------------------------|-------------------------------|


REPEAT (*)


e|--------------------|--------------------|
b|--------------------|--------------------|
g|--------------(ten)-|------------(twelve)|
d|-9xx-9xx-9xx-101010-|-9xx-9xx-9xx-121212-|
a|-9xx-9xx-9xx-101010-|-9xx-9xx-9xx-121212-|
e|-7xx-7xx-7xx--8-8-8-|-7xx-7xx-7xx-101010-| PLAY X2 TIMES


**
e||-----------------------------|    |-------------------------------------|
b||-----------------------------|    |-------------------------------------|
g||-----------------------------|    |-11-------11-------11-------11-12-11-|
d||-9------9------9-------------|    |----12-11----12-11----12-11----------|
a||---10-9---10-9---10-9-7-9-10-|    |-------------------------------------|
e||-----------------------------|x4  |-------------------------------------|x2


e|-----------------------------||**
b|-----------------------------||
g|-----------------------------||
d|-9------9------9-------------||
a|---10-9---10-9---10-9-7-9-10-||
e|-----------------------------||x2


   Em                        F#m
e|-------------------------|-------------------------------------|
b|---8-----8-----8-----8---|----10-------10-------10-------10----|
g|-9---9-9---9-9---9-9---9-|-11----11-11----11-11----11-11----11-|
d|-------------------------|-------------------------------------|
a|-------------------------|-------------------------------------|
e|-------------------------|-------------------------------------|


   Bm                                   G
e|----------10----------------10-------|----------10----------------10-------|
b|----12-------12-------12-------12----|----12-------12-------12-------12----|
g|-11----11-------11-11----11-------11-|-12----12-------12-12----12-------12-|
d|-------------------------------------|-------------------------------------|
a|-------------------------------------|-------------------------------------|
e|-------------------------------------|-------------------------------------|


   Em                        A
e|------10----10----10-----|-10------10------10------10------|
b|---8-----8-----8-----8---|----10------10------10------10---|
g|-9---9-----9-----9-----9-|-------9-------9-------9-------9-|
d|-------------------------|---------------------------------|
a|-------------------------|---------------------------------|
e|-------------------------|---------------------------------|


REPEAT (*)
REPEAT (**)
End
Suggest correction
Creating personal tab
Creating personal tab
You can edit any tab online and save it as your Personal.

You can edit, replace or remove any tab part or add personal notes – all changes will be seen only by you.

Personal tabs can be accessed anytime from any device, even offline.
Learn more »
Give kudos to tab author, rate the tab!
1 2 3 4 5
comments
print report bad tab
2 comments total.
0 reply
-blaze- 148 Dec 06, 2006 09:38 PM

yo, thanks dude, been searching everywhere for DDAs tabs. spot on. 5stars yea.. peace

0 reply
garryman 10 Dec 19, 2006 07:42 PM

Hm... can give 5.5 stars if u got the bass tab

guest
You may want to rate the tab now too:
select rating
Wanna post a correction for this tab? Suggest correction