Oops, an error
Loading. Please wait.

High Enough Bass Tab

version 1
version 1

Whole song

Interactive

889 views 6 this week
no commentswrite comment
1 2 3 4 5
excellent!
x 2
add to favorites
launch autoscroll
font size
0
reset
guitar tuner
Tab Pro tools
  • play this tab
  • loop segment
  • change instrument
  • show fretboard
  • metronome
Autoscroll
slow
fast
+/-
esc
set tempo
stop
Contributor
Difficulty
novice
-----------------------------------------------------------------------------
                             HIGH ENOUGH - Damn Yankees
-----------------------------------------------------------------------------

Tabbed By : teh-funnay

Tuning:EADG

  1st Verse - No Bass

 2nd Verse: "We don't need..."
G|--------------------------------------------------------------------------|
D|--------------------------------------------------------------------------|
A|--------------------------------------------------------------------------|
E|-/5----5--5---5-5-5---5--5---5-4-2----2--2---2-2-2---2--2---2-2-0---0--0--|

G|---------------------------------------------------------------------|
D|---------------------------------------------------------------------|
A|----------------------5---5--5---5-5-5---5-5-5---5-5-5---5-5/7---7-7-|
E|---0--0---0--0---0-0-------------------------------------------------|


  Pre chorus: "Don't say goodnight..."
G|----------------------------------------------------------|
D|----------------------------------------------------------|
A|----------------------------------------------------------|
E|-1---1--1-1-1--3---3--3-3-3---1---1--1-1-1--5---5--5-5-5--|

G|----------------------------------------------------------|
D|----------------------------------------------------------|
A|----------------------------------------------------------|
E|-1---1--1-1-1--3---3--3-3-3---3---5--5--5--5--5--5--5--5--|


 Chorus: "Can you take me..."
G|-----------------------------------------------------------------|
D|-----------------------------------------------------------------|
A|-5---5--5--5-----2----2--2---------------------------------------|
E|--------------5----------------3-2-0---0-0---0-3-3--3-5--5--5-5--|


G|-------------------------------------------------------------------|
D|----------------------------------------------------------5----5-5-|
A|-5---5--5--5--4--2----2--2------------------------------5----------|
E|--------------------------------3-2-0--0-0---0-3-------------------|


 3rd Verse: "I don't want to..."
G|---------------------------------------------------------------------------|
D|---------------------------------------------------------------------------|
A|---------------------------------------------------------------------------|
E|-5-5-5-5-5-5-5-00-5-5-5-5-5-5-5-5-2-2-2-2-2-2-2-00-2-2-2-2-2-2-2-2-0-0-0-0-|

G|----------------------------------------------------------------------|
D|----------------------------------------------------------------------|
A|--------------------------5--5-5--5-5-5---5-5-5---5-5-5---5-5/7---7-7-|
E|-0-0-0-0-0-0-0-0-0-0-0-00---------------------------------------------|

 Pre Chorus: "Don't say goodbye..."
G|----------------------------------------------------------|
D|----------------------------------------------------------|
A|----------------------------------------------------------|
E|-1---1--1-1-1--3---3--3-3-3---1---1--1-1-1--5---5--5-5-5--|


G|----------------------------------------------------------|
D|----------------------------------------------------------|
A|----------------------------------------------------------|
E|-1---1--1-1-1--3---3--3-3-3---3---5--5--5--5--5--5--5--55-|

 Chorus: "Can you take me..."
G|-----------------------------------------------------------------|
D|-----------------------------------------------------------------|
A|-5---5--5--5-----2----2--2---------------------------------------|
E|--------------5----------------3-2-0---0-0---0-3-3--3-5--5--5-5--|

G|-----------------------------------------------------------------|
D|-----------------------------------------------------------------|
A|-5---5--5--5--4--2----2--2---------------------------------------|
E|--------------------------------3-2-0--0-0---0-3------5-------5--|

  Bridge: "..runnin.."
G|-----------------------------------------------------------------|
D|-----------------------------------------------------------------|
A|---------------------------------5---5-5-5---5-7-----------------|
E|-7---7-7-7---7-7-7---7-7-7---7-7-----------------5---5-5-5---5-5-|

G|-----------------------------------------------------------------|
D|-----------------------------------------------------------------|
A|---------------------------------5---5-5-5---5-7-----------------|
E|-7---7-7-7---7-7-7---7-7-7---7-7-----------------5---5-5-5---5-5-|

G|-----------------------------------------------------------------|
D|-----------------------------------------------------------------|
A|---------------------------------5---5-5-5---5-7-----------------|
E|-7---7-7-7---7-7-7---7-7-7---7-7-----------------5---5-5-5---5-5-|

G|-----------------------------------------------------------------|
D|-----------------------------------------------------------------|
A|---------------------------------5---5---5---5-------------------|
E|-7---7-7-7---7-7-7---7-7-7---7-7-----------------5---5---5---5---|

  Guitar Solo
G|-----------------------------------------------------------------|
D|-----------------------------------------------------------------|
A|--------7--7-----4----4--4----------------------0--0--0-2--2-----|
E|-0------------7----------------5-4-2---2-2---2-------------------|

G|-----------------------------------------------------------------|
D|-----------------------------------------------------------------|
A|-----------7--6--4----4--4---------------------0-0-0-0-2-2-2-2---|
E|-0------0----------------------5-4-2---2-2---2-------------------|

  Pre Chorus
G|----------------------------------------------------------|
D|----------------------------------------------------------|
A|----------------------------------------------------------|
E|-3---3--3-3-3--5---5--5-5-5---3---3--3-3-3--7---7--7-7-7--|

G|----------------------------------------------------------|
D|----------------------------------------------------------|
A|----------------------------------------------------------|
E|-3---3--3-3-3--5---5--5-5-5---5---7--7--7--7--7--7--7--7--|

G|-------------------------|
D|-------------------------|
A|-------------------------|
E|-5--5--5--5--5--5--5--5--|


  Chorus
G|-----------------------------------------------------------------|
D|-----------------------------------------------------------------|
A|-5---5--5--5-----2----2--2---------------------------------------|
E|--------------5----------------3-2-0---0-0---0-3-3--3-5--5--5-5--|

G|-----------------------------------------------------------------|
D|-----------------------------------------------------------------|
A|-5---5--5--5--4--2----2--2---------------------------------------|
E|-------------------------------3-2-0---0-0---0-3------5-----5-5--|

G|-------------------------------------------------------------------|
D|-------------------------------------------------------------------|
A|-5---5--5--5-----2----2--2-----------------------------------------|
E|--------------5----------------3-2-0---0-0---0-3-3--3-5--5--5--5-5-|

G|----------------------------------------------------------------|
D|----------------------------------------------------------------|
A|-5---5--5--5--4--2----2--2--------------------------------------|
E|-------------------------------3-2-0---0-0---0-3------5------5--|

G|-----------------------------------------------------------------|
D|-----------------------------------------------------------------|
A|-5---------------------------------------------------------------|
E|-----------------------------------------------------------------|

| /  slide up

===============================================================================
comments
We did not receive enough feedback on this tab! Please rate:
print report bad tab
1 2 3 4 5
I want to post or [tab]
guest
You may want to rate the tab now too:
select rating
Please do not post tabs as comments. Select "correction" instead!