Oops, an error
Loading. Please wait.

Alone Again Or bass

by Damned
229 views 6 this week
no commentswrite comment
1 2 3 4 5
2 more votes to show rating
add to favorites
×
Save as Personal and add changes to this tab that will be seen only by you. Learn more ›
×
You can save this tab as Personal to edit and correct it or add notes. All changes will be seen only by you. Learn more »
launch autoscroll
font size
0
reset
guitar tuner
edit
Autoscroll
slow
fast
+/-
esc
set tempo
stop
Author
Alone Again Or
Original version by the band Love in 1965, this version by The Damned
Released in 1987 peaked at number 27 UK. Bass performance Bryn Merrick.
Tab by bass50611. Welcome to my tab as I see it. This is what I would 
Play on stage. What a great version by The Damned 

Intro: (SPANISH GUITAR INTRO WITH NO BASS)

Verse 1:
G|--------------------------------------------------------2--2-2--2-|
D|-4--4----4--4----5--5---5--5----4--4---4--4-3-2--2-2--2-----------|
A|-------4------4-------5------5-------4----------------------------|
E|------------------------------------------------------------------|

G|---------------------------------------------------------------------|
D|-----------------------------------------4--4-4----5--5-5---5--5-5---|
A|-5--5-5-4--2--2-2--2-0--0-0--0-2--2-2--2--------4---------5--------5-|
E|---------------------------------------------------------------------|

                            (Break)
G|-----------------------------|
D|-7--5--7--5--7--5--7-5-4-----|
A|-------------------------7-5-|
E|-----------------------------|

Interlude 1: (SPANISH GUITAR – NO BASS)

Verse 2:
G|--------------------------------------------------------2--2-2--2-|
D|-4--4----4--4----5--5---5--5----4--4---4--4-3-2--2-2--2-----------|
A|-------4------4-------5------5-------4----------------------------|
E|------------------------------------------------------------------|

G|---------------------------------------------------------------------|
D|-----------------------------------------4--4-4----5--5-5---5--5-5---|
A|-5--5-5-4--2--2-2--2-0--0-0--0-2--2-2--2--------4---------5--------5-|
E|---------------------------------------------------------------------|

                            (Break)
G|-----------------------------|
D|-7--5--7--5--7--5--7-5-4-----|
A|-------------------------7-5-|
E|-----------------------------|

Interlude 2: (SPANISH GUITAR – NO BASS)

Orchestral Solo with Horns:
G|------------------------------------------------------------------|
D|----------------------------------------------11-8----------------|
A|-9--9---9--9----10--10----10--10-----9--9---9------11-8-7--7-7--7-|
E|------9------9---------10--------10-------9-----------------------|

G|---------------------------------------------------------------------|
D|--------------------------------------------------4--4-4----5--5-5---|
A|--------4-5--5-5-0--2--2-2--2-0--0-0--0-2--2-2--2--------4---------5-|
E|-5--5-7--------------------------------------------------------------|

                                     (Break)
G|--------------------------------------|
D|-5--5-5---7--5--7--5--7--5--7-5-4-----|
A|--------5-------------------------7-5-|
E|--------------------------------------|


Interlude 1: (SPANISH GUITAR – NO BASS)

Verse 3:
G|------------------------------------------------------------------------|
D|------------------------------------------------------------------------|
A|-9--9---9--9----10--10----10--10-----9--9---9--9-8--7--7-7--7-----------|
E|------9------9---------10--------10-------9-------------------5--5-5--5-|

G|---------------------------------------------------------------------|
D|-----------------------------------------4--4-4----5--5-5---5--5-5---|
A|-5--5-5-4--2--2-2--2-0--0-0--0-2--2-2--2--------4---------5--------5-|
E|---------------------------------------------------------------------|

                            (Break)
G|-----------------------------|
D|-7--5--7--5--7--5--7-5-4-----|
A|-------------------------7-5-|
E|-----------------------------|

Outro: (SPANISH GUITAR – NO BASS)


Yeah I said it's alright
I won't forget
All the times
I waited patiently for you
As you do just what you choose to do
And I will be alone again tonight my dear


Yeh I heard a funny thing
Somebody said to me
That you could be in love
With almost anyone
You think people are the greatest fun
And I will be alone again tonight for you


Hey I said it's alright
You know I won't forget
All the times
I waited patiently for you
Now, you do just what
You choose to do
And I will be alone again tonight it's true

            
            
Suggest correction
Creating personal tab
Creating personal tab
You can edit any tab online and save it as your Personal.

You can edit, replace or remove any tab part or add personal notes – all changes will be seen only by you.

Personal tabs can be accessed anytime from any device, even offline.
Learn more »
Give kudos to tab author, rate the tab!
1 2 3 4 5
comments
print report bad tab
guest
You may want to rate the tab now too:
select rating
Wanna post a correction for this tab? Suggest correction