Oops, an error
Loading. Please wait.

New Rose bass

version 3
version 3

Whole song

Interactive

by Damned
1,951 views 15 this week
no commentswrite comment
1 2 3 4 5
x 5
add to favorites
×
Save as Personal and add changes to this tab that will be seen only by you. Learn more ›
×
You can save this tab as Personal to edit and correct it or add notes. All changes will be seen only by you. Learn more »
launch autoscroll
font size
0
reset
guitar tuner
edit
Autoscroll
slow
fast
+/-
esc
set tempo
stop
Difficulty
Damned - New Rose

[Listen for timings!]
Intro
G|----------------------------|
D|----------------------------|
A|-5--5-5---------7-7-7-------|x4
E|---------7--7-7-------5-5-5-|

*Break*

Chorus (without words)
G|----------------------------------------------------------|
D|----------------------------------------------------------|
A|-9-9--11-7--7-6-7-7-7-6-7-7-7-6-7-7-7-6-------------------|x4
E|----------------------------------------------------------|

Verse's
G|------------------------------|
D|------------------------------|
A|------------------------------|
E|-8-8-8/5-5-5-5--5-5-5--5-5-5--|

G|------------------------------|
D|------------------------------|
A|------------------------------|
E|-5-5-5/8-8-8-8--8-8-8--8-8-8--|

G|------------------------------|
D|------------------------------|
A|------------------------------|
E|-8-8-8/5-5-5-5--5-5-5--5-5-5--|

Then Back to the Chorus


The 'I never thought this could happen to me' bit
G|-----------------------------------------|
D|-----------------------------------------|  X4
A|-----------------------------------------|
E|-5-5-5-5-7-7-7-7-9--9--9--9--9--9--9--9--|

(The outro is the same as the chorus!)

            
            
Suggest correction
Creating personal tab
Creating personal tab
You can edit any tab online and save it as your Personal.

You can edit, replace or remove any tab part or add personal notes – all changes will be seen only by you.

Personal tabs can be accessed anytime from any device, even offline.
Learn more »
comments
print report bad tab
guest
Wanna post a correction for this tab? Suggest correction