Oops, an error
Loading. Please wait.

Apple Carts tab

version 2
version 2

Whole song

  • It was tabbed using as reference live versions of ... Show more
328 views 24 this week
no commentswrite comment
1 2 3 4 5
3 more votes to show rating
add to favorites
×
Save as Personal and add changes to this tab that will be seen only by you. Learn more ›
×
You can save this tab as Personal to edit and correct it or add notes. All changes will be seen only by you. Learn more »
launch autoscroll
font size
0
reset
how to read this tab
guitar tuner
edit
Autoscroll
slow
fast
+/-
esc
set tempo
stop
Author
-------------------------------------------------------------------------------
                             APPLE CARTS - Damon Albarn
-------------------------------------------------------------------------------
Tabbed by: gpeddino
E-mail: gpeddino@gmail.com

Tuning: EADGBE

Damon fingerpicks this song on a six-string acoustic guitar, accompanied by organ, flute and viola da gamba.

Despite the chords, he never uses barre shapes (instead he uses his thumb on the E string).


     B5
e|-----------------------------------|
B|-----------------------------------|
G|-----11---11---11---11---11---11---|
D|---9----9----9----9----9----9------|
A|-----------------------------------|
E|-----------------------------------|

     B5                             G5               Dsus2/E
e|-------------------------------------------------------------------------|
B|-------------------------------------------------------------------------|
G|-----11---11---11---11---11---11----7---7---7---7----7---7---7---7-------|
D|---9----9----9----9----9----9-----5---5---5---5--------------------------|
A|---------------------------------------------------7---7---7---7---------|
E|-------------------------------------------------------------------------|
   Pull the apple carts up from   Silvery Hill      higher until

     E7
e|-----------------------------------------------------|
B|-----------------------------------------------------|
G|-----7---7---7---7---7---7---7---7---7---7---7---7---|
D|-------6-------6-------6-------6-------6-------6-----|
A|---7-------7-------7-------7-------7-------7---------|
E|-----------------------------------------------------|
     heaven reveals

     A                                Gbm/Db
e|-----------------------------------------------------------------------|
B|-----------------------------------------------------------------------|
G|-----0---0---0---0---0---0---0---0----2---2---2---2---2---2---2---2----|
D|-------2-------2-------2-------2--------4-------4-------4-------4------|
A|---0-------0-------0-------0----------------4---------------4----------|
E|------------------------------------2---------------2------------------|
     On the addled dawn            respond

     B5                             G5               Dsus2/E
e|-------------------------------------------------------------------------|
B|-------------------------------------------------------------------------|
G|-----11---11---11---11---11---11----7---7---7---7----7---7---7---7-------|
D|---9----9----9----9----9----9-----5---5---5---5--------------------------|
A|---------------------------------------------------7---7---7---7---------|
E|-------------------------------------------------------------------------|
   to great authority     singing  Hallelujah      Hallelujah

     G(b5)/Db
e|--------------------------------------|
B|--------------------------------------|
G|-----0---0---0---0---0---0---0---0----|
D|--------------------------------------|
A|---4---4---4---4---4---4---4---4------|
E|--------------------------------------|
        love does reign 

     Em              G                F#              Bm
e|-----------------------------------------------------------------------|
B|-----------------------------------------------------------------------|
G|-----0---0---0---0---4---4---4---4----3---3---3---3---7---7---7---7----|
D|-------2-------2-------5-------5--------4-------4-------9-------9------|
A|-----------------------------------------------------------------------|
E|---0-------0-------3-------3--------2-------2-------7-------7----------|
      in the kingdom of                 the broken heart
      the black bird sings              and the moon, it lusts

     Em              G 
e|--------------------------------------------------|
B|--------------------------------------------------|
G|-----0---0---0---0---4---4---4---4---4---4--------|
D|-------2-------2-------5-------5-------5----------|
A|--------------------------------------------------|
E|---0-------0-------3-------3-------3-------3------|
          as war begins

     B5
e|-----------------------------------|
B|-----------------------------------|
G|-----11---11---11---11---11---11---|
D|---9----9----9----9----9----9------|
A|-----------------------------------|
E|-----------------------------------|
    dance


     B5                             G5               Dsus2/E
e|-------------------------------------------------------------------------|
B|-------------------------------------------------------------------------|
G|-----11---11---11---11---11---11----7---7---7---7----7---7---7---7-------|
D|---9----9----9----9----9----9-----5---5---5---5--------------------------|
A|---------------------------------------------------7---7---7---7---------|
E|-------------------------------------------------------------------------|
     Now burn the apple carts burn them until a grey fire begins

     E7
e|-----------------------------------------------------|
B|-----------------------------------------------------|
G|-----7---7---7---7---7---7---7---7---7---7---7---7---|
D|-------6-------6-------6-------6-------6-------6-----|
A|---7-------7-------7-------7-------7-------7---------|
E|-----------------------------------------------------|
       to glow in the sky

     A                                Gbm/Db
e|-----------------------------------------------------------------------|
B|-----------------------------------------------------------------------|
G|-----0---0---0---0---0---0---0---0----2---2---2---2---2---2---2---2----|
D|-------2-------2-------2-------2--------4-------4-------4-------4------|
A|---0-------0-------0-------0----------------4---------------4----------|
E|------------------------------------2---------------2------------------|
       there beneath the stones      recharge

     B5                             G5               Dsus2/E
e|-------------------------------------------------------------------------|
B|-------------------------------------------------------------------------|
G|-----11---11---11---11---11---11----7---7---7---7----7---7---7---7-------|
D|---9----9----9----9----9----9-----5---5---5---5--------------------------|
A|---------------------------------------------------7---7---7---7---------|
E|-------------------------------------------------------------------------|
     from great austerity raining down from above, distant is love

     G(b5)/Db
e|--------------------------------------|
B|--------------------------------------|
G|-----0---0---0---0---0---0---0---0----|
D|--------------------------------------|
A|---4---4---4---4---4---4---4---4------|
E|--------------------------------------|
        are disdained

     Em              G                F#              Bm
e|-----------------------------------------------------------------------|
B|-----------------------------------------------------------------------|
G|-----0---0---0---0---4---4---4---4----3---3---3---3---7---7---7---7----|
D|-------2-------2-------5-------5--------4-------4-------9-------9------|
A|-----------------------------------------------------------------------|
E|---0-------0-------3-------3--------2-------2-------7-------7----------|
      in the kingdom of                  the broken heart
      a black bird sings                 and the sun, it lusts

     Em              G 
e|--------------------------------------------------|
B|--------------------------------------------------|
G|-----0---0---0---0---4---4---4---4---4---4--------|
D|-------2-------2-------5-------5-------5----------|
A|--------------------------------------------------|
E|---0-------0-------3-------3-------3-------3------|
          as war begins

     Em              G                F#              Bm
e|-----------------------------------------------------------------------|
B|-----------------------------------------------------------------------|
G|-----0---0---0---0---4---4---4---4----3---3---3---3---7---7---7---7----|
D|-------2-------2-------5-------5--------4-------4-------9-------9------|
A|-----------------------------------------------------------------------|
E|---0-------0-------3-------3--------2-------2-------7-------7----------|
     dance, pull the apple carts high up on the hill
     set the cores alight, a sea of glass is real
     cast the barley out into prevailing winds
   
   Em              G                F#              Bm
e|----------------------------------------------------------|
B|-----------------------------------------------------0----|
G|-----0---0---0---0---4---4---4---4----3---3---3---3--7----|
D|-------2-------2-------5-------5--------4-------4----9----|
A|-----------------------------------------------------x----|
E|---0-------0-------3-------3--------2-------2--------7----|
   where it lands and grows the blackbird will sing

            
            
Suggest correction
Creating personal tab
Creating personal tab
You can edit any tab online and save it as your Personal.

You can edit, replace or remove any tab part or add personal notes – all changes will be seen only by you.

Personal tabs can be accessed anytime from any device, even offline.
Learn more »
Give kudos to tab author, rate the tab!
1 2 3 4 5
comments
print report bad tab
guest
You may want to rate the tab now too:
select rating
Wanna post a correction for this tab? Suggest correction