Oops, an error
Loading. Please wait.

Apple Carts Tab

version 3
version 3

Whole song

  • It was tabbed using as reference live versions of ... Show more
16 views 3 this week
no commentswrite comment
1 2 3 4 5
3 more votes to show rating
add to favorites
launch autoscroll
font size
0
reset
how to read this tab
guitar tuner
Autoscroll
slow
fast
+/-
esc
set tempo
stop
Help us to improve Ultimate-Guitar.com Take our survey!
×
Author
Difficulty
intermediate
About this tab version
It was tabbed using as reference live versions of the song, tabbed to make it closer as possible to the way he plays it. Was this info helpful? Yes No
Maybe it will be easier to play it if you play it like him,he uses his tumb to play the E string when is used.

The lyrics are supposed to be synced with the tab.

He kind of slow down on the chorus.
--------------------------------------------------------------------------------------------------------------



 [Intro]
e|------------------------|
B|------------------------|
G|----11---11---11---11---|
D|--9----9----9----9------|     x4
A|------------------------|
E|------------------------|


[Verse]

    Pull the apple carts,         up from
e|----------------------------------------------|
B|----------------------------------------------|
G|----11---11---11---11---11---11---11---11-----|
D|--9----9----9----9----9----9----9----9--------|
A|----------------------------------------------|
E|----------------------------------------------|


    Silverly hill   higher until    heaven revealed
e|---------------------------------------------------------------------------|
B|---------------------------------------------------------------------------|
G|----7---7---7---7---7---7---7---7---7---7--7---7---7---7---7---7-----------|
D|--5---5---5---5-------5-------5-------6------6-------6-------6-------------|
A|------------------7-------7-------7------7-------7-------7-----------------|
E|---------------------------------------------------------------------------|


    On the out of dawn...           respawn
e|---------------------------------------------------------------------------|
B|---------------------------------------------------------------------------|
G|----0---0---0---0---0---0---0---0---2---2---2---2---2---2---2---2----------|
D|------2-------2-------2-------2-------4-------4-------4-------4------------|
A|--4-------4-------4-------4------------------------------------------------|
E|----------------------------------2-------2-------2-------2----------------|


    To great authority            singing
e|----------------------------------------------|
B|----------------------------------------------|
G|----11---11---11---11---11---11---11---11-----|
D|--9----9----9----9----9----9----9----9--------|
A|----------------------------------------------|
E|----------------------------------------------|


    hallellujah,     hallellujah...
e|---------------------------------------|
B|---------------------------------------|
G|----7---7---7---7---7---7---7---7------|
D|--5---5---5---5-------5-------5--------|
A|------------------7-------7------------|
E|---------------------------------------|


[Chorus]

   Love does reign
e|-------------------------------------|
B|-------------------------------------|
G|----0---0---0---0---0---0---0---0----|
D|------4-------4-------4-------4------|
A|--0-------0-------0-------0----------|
E|-------------------------------------|



   In the kingdom of                      the broken heart           
e|---------------------------------------------------------------------|
B|---------------------------------------------------------------------|
G|--0---0---0---0---4---4---4-------3---3---3---3(/7)---7---7---7------|
D|----2-------2-------5-------5\4-----4-------4-----------9-------9\---|
A|---------------------------------------------------------------------|
E|-0------0-------3-------3-------2-------2-----------7-------7--------|


   The blackbird  sings                  and the moon it laughs
e|---------------------------------------------------------------------|
B|---------------------------------------------------------------------|
G|--0---0---0---0---4---4---4-------3---3---3---3(/7)---7---7---7------|
D|----2-------2-------5-------5\4-----4-------4-----------9-------9\---|
A|---------------------------------------------------------------------|
E|-0------0-------3-------3-------2-------2-----------7-------7--------|


  As war begins...                  
e|-------------------------------|
B|-------------------------------|
G|--0---0---0---0---4---4---4----|
D|----2-------2-------5-------5--|
A|-------------------------------|
E|-0------0-------3-------3------|


   dance
e|------------------------|
B|------------------------|
G|----11---11---11---11---|
D|--9----9----9----9------|    x5 
A|------------------------|
E|------------------------|


[Verse]

   Now burn the apple carts       burn them
e|----------------------------------------------|
B|----------------------------------------------|
G|----11---11---11---11---11---11---11---11-----|
D|--9----9----9----9----9----9----9----9--------|
A|----------------------------------------------|
E|----------------------------------------------|


    until a great   fire begins to  glow in the sky     
e|---------------------------------------------------------------------------|
B|---------------------------------------------------------------------------|
G|----7---7---7---7---7---7---7---7---7---7--7---7---7---7---7---7-----------|
D|--5---5---5---5-------5-------5-------6------6-------6-------6-------------|
A|------------------7-------7-------7------7-------7-------7-----------------|
E|---------------------------------------------------------------------------|


   There beneath the stones,       recharge
e|---------------------------------------------------------------------------|
B|---------------------------------------------------------------------------|
G|----0---0---0---0---0---0---0---0---2---2---2---2---2---2---2---2----------|
D|------2-------2-------2-------2-------4-------4-------4-------4------------|
A|--4-------4-------4-------4------------------------------------------------|
E|----------------------------------2-------2-------2-------2----------------|


   From great austerity           raining
e|----------------------------------------------|
B|----------------------------------------------|
G|----11---11---11---11---11---11---11---11-----|
D|--9----9----9----9----9----9----9----9--------|
A|----------------------------------------------|
E|----------------------------------------------|


   down from above  distant is love
e|---------------------------------------|
B|---------------------------------------|
G|----7---7---7---7---7---7---7---7------|
D|--5---5---5---5-------5-------5--------|
A|------------------7-------7------------|
E|---------------------------------------|


   Our distain
e|-------------------------------------|
B|-------------------------------------|
G|----0---0---0---0---0---0---0---0----|
D|------4-------4-------4-------4------|
A|--0-------0-------0-------0----------|
E|-------------------------------------|


[Chorus]

   In the kingdom of                      the broken heart           
e|---------------------------------------------------------------------|
B|---------------------------------------------------------------------|
G|--0---0---0---0---4---4---4-------3---3---3---3(/7)---7---7---7------|
D|----2-------2-------5-------5\4-----4-------4-----------9-------9\---|
A|---------------------------------------------------------------------|
E|-0------0-------3-------3-------2-------2-----------7-------7--------|


   a blackbird  sings                  and the sun it laughs
e|---------------------------------------------------------------------|
B|---------------------------------------------------------------------|
G|--0---0---0---0---4---4---4-------3---3---3---3(/7)---7---7---7------|
D|----2-------2-------5-------5\4-----4-------4-----------9-------9\---|
A|---------------------------------------------------------------------|
E|-0------0-------3-------3-------2-------2-----------7-------7--------|


  As war begins...                    dance...
e|-------------------------------|
B|-------------------------------|
G|--0---0---0---0---4---4---4----|
D|----2-------2-------5-------5--|
A|-------------------------------|
E|-0------0-------3-------3------|


[Verse]

  Pull the apple carts            high up on the hill
e|---------------------------------------------------------------------|
B|---------------------------------------------------------------------|
G|--0---0---0---0---4---4---4-------3---3---3---3(/7)---7---7---7------|
D|----2-------2-------5-------5\4-----4-------4-----------9-------9\---|
A|---------------------------------------------------------------------|
E|-0------0-------3-------3-------2-------2-----------7-------7--------|


   Set the cores alight            A sea of glass is real
e|---------------------------------------------------------------------|
B|---------------------------------------------------------------------|
G|--0---0---0---0---4---4---4-------3---3---3---3(/7)---7---7---7------|
D|----2-------2-------5-------5\4-----4-------4-----------9-------9\---|
A|---------------------------------------------------------------------|
E|-0------0-------3-------3-------2-------2-----------7-------7--------|


   Pass the barley out             to prevailing winds
e|---------------------------------------------------------------------|
B|---------------------------------------------------------------------|
G|--0---0---0---0---4---4---4-------3---3---3---3(/7)---7---7---7------|
D|----2-------2-------5-------5\4-----4-------4-----------9-------9\---|
A|---------------------------------------------------------------------|
E|-0------0-------3-------3-------2-------2-----------7-------7--------|


   Where it lands and grows        the blackbird will sin
e|---------------------------------------------------------------------|
B|---------------------------------------------------------------------|
G|--0---0---0---0---4---4---4-------3---3---3---3(/7)---7---7---7------|
D|----2-------2-------5-------5\4-----4-------4-----------9-------9\---|
A|---------------------------------------------------------------------|
E|-0------0-------3-------3-------2-------2-----------7-------7--------|

************************************
 
| (n) Ghost note 
| /   Slide up
| \   Slide down 

************************************ 
Suggest correction
Give kudos to tab author, rate the tab!
1 2 3 4 5
comments
print report bad tab
guest
You may want to rate the tab now too:
select rating
Wanna post a correction for this tab? Suggest correction