Oops, an error
Loading. Please wait.

The History Of A Cheating Heart Tab

version 1
version 1

Whole song

Interactive

2,324 views 6 this week
no commentswrite comment
1 2 3 4 5
accurate
x 5
add to favorites
launch autoscroll
font size
0
reset
how to read this tab
guitar tuner
Tab Pro tools
  • play this tab
  • loop segment
  • change instrument
  • show fretboard
  • metronome
×
Best way to learn
"The History Of A Cheating Heart"
Autoscroll
slow
fast
+/-
esc
set tempo
stop
Contributor
Difficulty
intermediate
-------------------------------------------------------------------------------
               The History of a Cheating Heart - Damon Albarn
-------------------------------------------------------------------------------
Tabbed by: Leo Gaunt
E-mail: leo_gaunt@hotmail.com
My first Tab
Tuning:

Verse pt 1
e|---------------------------------------------------------------------------|
B|------3--------5----7-----------3---------5-----6--------------------------|
G|---------------------------------------------------------------------------|
D|--------5/7-----7/9----------------5/7------7/8----------------------------|
A|---------------------------------------------------------------------------|
E|---3---------5------7--------3----------5--------6-------------------------|X2
Verse pt 2
e|---------------------------------------------------------------------------|
B|------3--------5----7-----7---------3---------5-----6--------6-------------|
G|---------------------------7----------------------------------6------------|
D|--------5/7-----7/9---------9----------5/7------7/8------------8-----------|
A|---------------------------------------------------------------------------|
E|---3---------5------7-------------3--------5----------6--------------------|X2
Chorus
e|-------------------------------------------{-----------------------------------------------------------------}|
B|----5-5--5-----3-3--3-----7-7--7-7-7-7--7--{--5-5--5-----3-3--3-----5-5--5-----1-1--1-----3-3--3-------------}|
G|---5-5----5---4-4----4---7-7----7-7-7----7-{-5-5----5---4-4----4---5-5----5---2-2----2---4-4----4----0-0--0--}|
D|-------------------------------------------{--------------------------------------------------------2-2-2---2}|
A|---3---3------2---2------5------5----------{-3----3-----2----2-----3----3-----0----0-----2----2--------------}|
E|-------------------------------------------{--------------------------------------------------------0----0-}X4|

e|------------------------------------------|
B|----5-5-5-5----7-7-7-7----8-8-8-8-8-8-8-8-|
G|---5-5-5-5----7-7-7-7----7-7-7-7-7-7-7-7--|
D|------------------------------------------|
A|---3---3------5---5------5---5---5---5----|
E|------------------------------------------|

Verse 1+2
Chorus
Verse 1
Different verse I haven't got time to tab yet!

Outro
e|---------------------------------------------------------------------------|
B|---587878787-10--7--5--6-6-6-6-6-6-6-6-6-6-5-5-5-5-5-5-5-5-5-5-5-5-5--3----|
G|---------------------------------------------------------------------------|
D|---------------------------------------------------------------------------|
A|---------------------------------------------------------------------------|
E|---------------------------------------------------------------------------|

Pretty Simple, If you listen to the track at the same time you'll easily pick up the timing etc.


************************************

| /   slide up
| \   slide down
| h   hammer-on
| p   pull-off
| ~   vibrato
| +   harmonic
| x   Mute note
| b   Bend
| pb  Pre-bend
| br  Bend release
| pbr Pre-bend release
| brb Bend release bend

************************************
comments
print report bad tab
I want to post or [tab]
guest
You may want to rate the tab now too:
select rating
Please do not post tabs as comments. Select "correction" instead!