Oops, an error
Loading. Please wait.

Out Here All Night tab

version 1
version 1

Whole song

Interactive

by Damone
4,027 views 9 this week
3 commentsread comments
1 2 3 4 5
x 5
add to favorites
×
Save as Personal and add changes to this tab that will be seen only by you. Learn more ›
×
You can save this tab as Personal to edit and correct it or add notes. All changes will be seen only by you. Learn more »
launch autoscroll
font size
0
reset
how to read this tab
guitar tuner
edit
Autoscroll
slow
fast
+/-
esc
set tempo
stop
Damone - Out here all night

Guitar I  - Rhythm [DADGBE]
Guitar II - Lead   [DADGBE]

Intro 
GUITAR I
e|-----------------------------------------------------------|
B|-----------------------------------------------------------|
G|-----------------------------------------------------------|
D|--/3----5-------2----3------3----5----2--------------------|
A|--/3----5-------2----3------3----5----2-----3------3-------|
D|--/3-00-5-0000--2-00-3-0000-3-00-5-0002--03----03----000---|
 |     **   ****    **   ****   **   ***   **    **    ***   |
GUITAR II                                                    |
e|-----------------------------------------------------------|
B|-----------------------------------------------------------|
G|-----------------------------------------------------------|
D|--------------------------------------------10----10-------|
A|---8----10------7----8------8----10-----7/8----------------|
D|-----00----0000---00---0000---00----000--------00----000---|
       **    ****   **   ****   **    ***        **    ***

Intro (Con't)
GUITAR I
e|-----------------------------------------------------------|
B|-----------------------------------------------------------|
G|-----------------------------------------------------------|
D|--/3----5-------2----3------3----5----2--------------------|
A|--/3----5-------2----3------3----5----2-----3------3-------|
D|--/3-00-5-0000--2-00-3-0000-3-00-5-0002--03----03----000---|
 |     **   ****    **   ****   **   ***   **    **    ***   |
GUITAR II                                                    |
e|-----------------------------------------------------------|
B|--------------------------------------------13----13-------|
G|---10---12------9----10-----10---12----9/10----------------|
D|--------------------------------------------10----10-------|
A|---8----10------7----8------8----10-----7/8----------------|
D|-----00----0000---00---0000---00----000--------00----000---|
       **    ****   **   ****   **    ***        **    ***

Verse 
Guitar I
e|-------------------------------------------------------------------------|
B|-------------------------------------------------------------------------|
G|-------------------------------------------------------------------------|
D|--33333333333333333333333333333333333333333333777777777------------------|
A|--33333333333333333333333333333333333333333333777777777------------------|
D|--33333333333333333333333333333333333333333333777777777------------------|
 |   ****************************************************                  |
Guitar II                                                                  |
e|-------------------------------------------------------------------------|
B|-------------------------------------------------------------------------|
G|-------------------------------------------------------------------------|
D|----------------------------------------------7^~~~~~~~~~~~--------------|
A|-------------------------------------------------------------------------|
D|----------------------------------------------7^~~~~~~~~~~~--------------|
                                                Bend
(Repeat Intro)

(Repeat Verse)

(Repeat Intro) 

Chorus x2
Guitar I
e|----------------------------------------------------------|
B|----------------------------------------------------------|
G|----------------------------------------------------------|
D|---8888888888888888888888888887777777777777777777777777---|
A|---8888888888888888888888888887777777777777777777777777---|
D|---8888888888888888888888888887777777777777777777777777---|
 Guitar II
e|----------------------------------------------------------|
B|------------------------------10-10-10-10-10-10-10-10-10--|
G|----------------------------------------------------------|
D|---888888888888888888888888888-7--7--7--7--7--7--7--7--7--|
A|---888888888888888888888888888-7--7--7--7--7--7--7--7--7--|
D|---888888888888888888888888888----------------------------|

Guitar I    
e|----------------------------------------------------------|
B|----------------------------------------------------------|
G|------------------------------7777777777777777777777777---|
D|---5555555555555555555555555557777777777777777777777777---|
A|---5555555555555555555555555557777777777777777777777777---|
D|---5555555555555555555555555557777777777777777777777777---|
Guitar II    
e|----------------------------------------------------------|
B|---888888888888888888888888888----------------------------|
G|---77777777777777777777777777710101010101010101010101010--|
D|----------------------------------------------------------|
A|---5555555555555555555555555557777777777777777777777777---|
D|----------------------------------------------------------|

Post Chorus Fill
Guitar II
e|--------------------|
B|-----6--------------|
G|---7---7-6-5-2------|
D|---------------3-2--|
A|--------------------|
D|--------------------|


Repeat Intro

Repeat verse 

Chorus

bridge (same as chorus?????)

Intro riff

Chorus

breakdown (same as intro except last measure just hammer on the 'E' and 'F's and the end)






            
            
Suggest correction
Creating personal tab
Creating personal tab
You can edit any tab online and save it as your Personal.

You can edit, replace or remove any tab part or add personal notes – all changes will be seen only by you.

Personal tabs can be accessed anytime from any device, even offline.
Learn more »
comments
print report bad tab
3 comments total.
0 reply
isbutterbeanok 10 Aug 11, 2006 10:01 PM

u should proll let ppl kno that this is in drop-D

0 reply
donkeyman2341 60 Sep 06, 2006 10:18 PM

uh...this is a good start, there is definitely two different intro parts, one sounds more like individual notes and maybe a little synth with the guitar and then the other one comes in after the 1st chorus and sounds like the way you have it tabbed (chords)...and theres a lead guitar throughout most of the song, especially during the chorus...i'll try to expand on this

0 reply
jsowads 10 Jun 03, 2007 02:29 PM

isbutter, it says next to the strings, D

guest
You may want to rate the tab now too:
select rating
Wanna post a correction for this tab? Suggest correction