Oops, an error
Loading. Please wait.

Youre The One tab

by Damone
4 views 1 this week
no commentswrite comment
1 2 3 4 5
3 more votes to show rating
add to favorites
×
Save as Personal and add changes to this tab that will be seen only by you. Learn more ›
×
You can save this tab as Personal to edit and correct it or add notes. All changes will be seen only by you. Learn more »
launch autoscroll
font size
0
reset
how to read this tab
guitar tuner
edit
Autoscroll
slow
fast
+/-
esc
set tempo
stop
About this tab version
There was No Tab for this song and ive really wanted to learn it i was able to find a live performance and work out the notes the performance is accoustic but much of it matches up to the actual song for reference it is here https://www.youtube.com/watch?v=_QMNjp6ib-E its a 10 year old song with no tabs tuning is drop d and its farily easy to play i think the timing the octave chords and the lead make it more of an intermediate skill song but parts of it should be playable just fine for begginers versed in drop d. Was this info helpful? Yes No
Tuning: DADGBE

[Intro]
(Guitar 1)
e|---------------------------------------------------------------|
B|---------------------------------------------------------------|
G|---------------------------------------------------------------|
D|--7777--7777--7777--7777--6666--6666--2222--444----------------|  
A|--7777--7777--7777--7777--6666--6666--2222--222----------------|
D|--7777--7777--7777--7777--6666--6666--2222---------------------|

e|---------------------------------------------------------------|
B|---------------------------------------------------------------|
G|---------------------------------------------------------------|
D|--7777--7777--7777--7777--6666--6666--2222--44--6-7------------|  
A|--7777--7777--7777--7777--6666--6666--2222--22--6-7------------|
D|--7777--7777--7777--7777--6666--6666--2222------6-7------------|

(Guitar 2) (play 2X in time with guitar 1 )
e|---------------------------------------------------------------|
B|---------------------------------------------------------------|
G|--2222--2222--2222--2222--1111--1111---------------------------|
D|--2222--2222--2222--2222--2222--2222--2222--444----------------|
A|--0000--0000--0000--0000--0000--0000--2222--222----------------|
D|--------------------------------------2222---------------------|

[Verse] ( ....forever pushing ten to midnight)
e|----------------------------------------------------------------|
B|----------------------------------------------------------------|
G|----------------------------------------------------------------|
D|--7777--77----------------999--9999--9999--66-6/7---------------|
A|--7777--77--6-6-6-7-7-7---999--9999--9999--66-6/7---------------|
D|--7777--77--------------9-999--9999--9999--66-6/7---------------|

e|----------------------------------------------------------------|
B|----------------------------------------------------------------|
G|----------------------------------------------------------------|
D|--7777--77----------------999--9999--9999--11-11--9--11-11-9----|
A|--7777--77--6-6-6-7-7-7---999--9999--9999--9--9---9--9--9--9----|
D|--7777--77--------------9-999--9999--9999--9--9---9--9--9--9----|

[Pre-Chorus] (....it really doesn't matter)
e|---------------------------------------------------------------|
B|---------------------------------------------------------------|
G|--------------------------------------------------2222-2222----|
D|--9999--9999--9999--9999--9999--9999--2222--4444--2222-2222----|  
A|--7777--7777--7777--7777--6666--6666--2222--2222--0000-0000----|
D|--7777--7777--7777--7777--6666--6666--2222---------------------|

e|---------------------------------------------------------------|
B|-----------------------9h10p9----------------------------------|
G|-----------------------------11--9h11p9-8--8h9p8---------------|
D|--9999-------------------------------------------11-9----------|
A|--9999--11-11-11-11--------------------------------------------|
D|--9999--9--9--9--9---------------------------------------------|

[Chorus] (...you're the one)
e|---------------------------------------------------------------|
B|---------------------------------------------------------------|
G|----------------------2--22-4-2-22-4-2-------------------------| (x4)
D|-6-7-9-999-9999--11-2-2--22-2-2-22-2-2-------------------------|
A|-6-7-9-999-9999--11-2-0--00-0-0-00-0-0-------------------------|
D|-6-7-9-999-9999--11-2------------------------------------------|

[Bridge] (...im caught between i want and whats right)
e|---------------------------------------------------------------|
B|---------------------------------------------------------------|
G|---------------------------------------------------------------| (x3)
D|--99999999---999-777-77-9--------------------------------------|
A|--99999999---777-777-77-9--------------------------------------|
D|--99999999-------777-77-9--------------------------------------|
    pm  pm     pm  pm
        
[Solo]
e|---------------------------------------------------------------|
B|--10-10-10-9-7-7--9p7------------------------------------------|
G|--9--9--9--9-8-8------9------------------------------13~-------|
D|-------------9-9--------7~--7h8h9~--9h11p9~--9h11p9~-----------|
A|---------------------------------------------------------------|
D|---------------------------------------------------------------|

e|---------------------------------------------------------------|
B|---------------------------------------------------------------|
G|---8b8---------------------------------------------------------|
D|-------9-------------------------------------------------------|
A|---------9b9---------------------------------------------------|
D|---------------------------------------------------------------|
                       
e|---------------------------------------------------------------|
B|--9h10p9h10p9-12p9---9h10p9h10p9-12p9----9h10p9h10p9-12p9------|
G|---------------------------------------------------------------|
D|---------------------------------------------------------------|
A|---------------------------------------------------------------|
D|---------------------------------------------------------------|

e|---------------------------------------------------------------|
B|--10p9--12p9------10p9--12p9-----------------------------------|
G|---------------------------------------------------------------|
D|---------------------------------------------------------------|
A|---------------------------------------------------------------|
D|---------------------------------------------------------------|

e|--12-11-9------------------------------------------------------|
B|----------12-10-9---------9h10p9-------------------------------|
G|------------------11-9-8---------11--9h11p9-8--8h9p8-----------|
D|-----------------------------------------------------11-9------|
A|---------------------------------------------------------------|
D|---------------------------------------------------------------|


************************************

| /  Slide up
| h  Hammer-on
| p  Pull-off
| ~  Vibrato
| b  Bend

************************************

            
            
Suggest correction
Creating personal tab
Creating personal tab
You can edit any tab online and save it as your Personal.

You can edit, replace or remove any tab part or add personal notes – all changes will be seen only by you.

Personal tabs can be accessed anytime from any device, even offline.
Learn more »
Give kudos to tab author, rate the tab!
1 2 3 4 5
comments
print report bad tab
guest
You may want to rate the tab now too:
select rating
Wanna post a correction for this tab? Suggest correction