Oops, an error
Loading. Please wait.
58 views 9 this week
no commentswrite comment
1 2 3 4 5
3 more votes to show rating
add to favorites
launch autoscroll
font size
0
reset
how to read this tab
guitar tuner
Autoscroll
slow
fast
+/-
esc
set tempo
stop
Help us to improve Ultimate-Guitar.com Take our survey!
×
Author
Difficulty
intermediate
Fire Pit
Dan Andriano in the Emergency Room
Party Adjacent (2015)

Standard Tuning


[Intro] 

e|-7-----------------------|-7-------------------------|-7-----------------------|-7-----------7-------------|
B|---8-------8-------------|---8-------8-----------8-9-|---8-------8-------------|---8-----------8---8-10----|
G|-----9-7-9---9-----7-----|-----9-7-9---9-----7-------|-----9-7-9---9-----7-----|-----9-7-9-------9-------9~|
D|---------------7-9---9---|---------------7-9---9-----|---------------7-9---9---|---------------------------|
A|-----------------------7~|---------------------------|-----------------------7~|---------------------------|
E|-------------------------|---------------------------|-------------------------|---------------------------|

e|-7-----------------------|-7-------------------------|-7-----------------------|-7-----------7-------------|
B|---8-------8-------------|---8-------8-----------8-9-|---8-------8-------------|---8-----------8---8-10----|
G|-----9-7-9---9-----7-----|-----9-7-9---9-----7-------|-----9-7-9---9-----7-----|-----9-7-9-------9-------9~|
D|---------------7-9---9---|---------------7-9---9-----|---------------7-9---9---|---------------------------|
A|-----------------------7~|---------------------------|-----------------------7~|---------------------------|
E|-------------------------|---------------------------|-------------------------|---------------------------|

e|-------------------------|---------------------------|
B|-------------------------|---------------------------|
G|-------------------9-9---|-9\------------------------|
D|-------------------------|---------------------------|
A|-------------------------|---------------------------|
E|-------------------------|---------------------------|


***********************************
| \   Slide Down
***********************************
Suggest correction
Give kudos to tab author, rate the tab!
1 2 3 4 5
comments
print report bad tab
guest
You may want to rate the tab now too:
select rating
Wanna post a correction for this tab? Suggest correction