Oops, an error
Loading. Please wait.

Goin Home Tab

version 1
version 1

Whole song

19,118 views 1 this week
no commentswrite comment
1 2 3 4 5
accurate
x 5
add to favorites
launch autoscroll
font size
0
reset
how to read this tab
guitar tuner
Tab Pro tools
  • play this tab
  • loop segment
  • change instrument
  • show fretboard
  • metronome
×
Best way to learn
"Goin Home"
Autoscroll
slow
fast
+/-
esc
set tempo
stop
Contributor
Capo
9th fret
Sort of a stripped down version of the main melody on guitar. Listen for timing.
capo on 9th

VERSE:

E|-0-3--0--------0-------------------0-1--3-0-------|
B|--------1--1h3---1------------1-3-----------------|
G|--------------------3-2--3-2----------------------|
D|--------------------------------------------------|
A|--------------------------------------------------|
E|--------------------------------------------------|

CHORUS:

   So   long   I'm goin'  goin' home
E|-3----0------0------------------------------|
B|-----------------3------3----1--------------|
G|--------------------------------------------|
D|--------------------------------------------|
A|--------------------------------------------|
E|--------------------------------------------|

Hope it helps.
comments
print report bad tab
I want to post or [tab]
guest
You may want to rate the tab now too:
select rating
Please do not post tabs as comments. Select "correction" instead!