Oops, an error
Loading. Please wait.

Shine On Me tab

8,566 views 222 this week
7 commentsread comments
1 2 3 4 5
x 14
add to favorites
×
Save as Personal and add changes to this tab that will be seen only by you. Learn more ›
×
You can save this tab as Personal to edit and correct it or add notes. All changes will be seen only by you. Learn more »
launch autoscroll
font size
0
reset
how to read this tab
guitar tuner
edit
Autoscroll
slow
fast
+/-
esc
set tempo
stop
About this tab version
This version includes chords and the tabs for 3 different guitars that are playing in the song. This makes it easier to play one or all of the different parts. Was this info helpful? Yes No
-------------------------------------------------------------------------------
                             Dan Auerbach - SHINE ON ME
-------------------------------------------------------------------------------
Tabbed by: usernamek

Tuning: Standard


Chords in the song:

   (G)     (A)     (D)     (F#)   (F#m)
e|--3-------5-------5-------2-------2--------------|
B|--3-------5-------7-------2-------2--------------|
G|--4-------6-------7-------3-------2--------------|
D|--5-------7-------7-------4-------4--------------|
A|--5-------7-------5-------4-------4--------------|
E|--3-------5-------5-------2-------2--------------|

[Intro]

e|-----------------------------------------------|
B|-----------------------------------------------|
G|-----------------------------------------------|
D|-----------------------------------------------|
A|-----------------------------5-5-5-5-5---------|
E|--3-3-3-3-3------------------------------------|

(Guitar 2)

e|---5--5----5--5----3--3--3--3--3-------|--------3--3----5--5----5--5--5--5--5-------|
B|---7--7----5--5----3--3--3--3--3-------|--------3--3----5--5----7--7--7--7--7-------|
G|---7--7----6--6----4--4--4--4--4-------|--------4--4----6--6----7--7--7--7--7-------|
D|---7--7----7--7----5--5--5--5--5-------|--------5--5----7--7----7--7--7--7--7-------|   x3 
A|---5--5----7--7----5--5--5--5--5-------|--------5--5----7--7----5--5--5--5--5-------|
E|-----------5--5----3--3--3--3--3-------|--------3--3----5--5------------------------|

(Guitar 3) 

e|-----2-------------3-----------------------------4-------------2-------------|
B|-----3-------2-----3-----------------------------4-------2-----3-------------|
G|-----2-------2-----4-----------------------------5-------2-----2-------------|
D|---0---------2-----5-------------------------------------2-------------------|
A|-----------0-------5----------------------------------0----------------------|
E|-------------------3--------------------------3------------------------------|

e|--2/3/2------------3-----------------------------4-------------2-------------|
B|--3/3/3------2-----3-----------------------------4-------2-----3-------------|
G|--2/4/2------2-----4-----------------------------5-------2-----2-------------|
D|-0-----------2-----5-------------------------------------2-------------------|
A|-----------0-------5----------------------------------0----------------------|
E|-------------------3---------------------------3------------------------------|

[Verse 1] There is not guitar in the verse, but the chords would remain more or less the same.

D        A            G
You only got a couple miles to go
G                   A          D
If you're trying to drive me insane
D                   A         G 
I saw you crack a smile about a week ago
G                    A      D
In the middle of the pouring rain

[Pre-chorus 1]

  G                               A
I climb the Cliffs of Dover to go drive out in the sun
    G                               F#
I'm like a four leaf clover cause I hide from every one


[Chorus 1] Played just like the intro. 

D     A   G
Shine on me
G     A   D
Shine on me
D     A  G
Shine on me
G     A  D
Shine on me


(4th Guitar)
e|-----------------------------------------------------------------------------|
B|----10-12----10-12----10-12---------------10-12----10-12----12-10------------|
G|-11-------11-------11------------------11-------11-------11------------------|
D|-----------------------------------------------------------------------------|
A|-----------------------------------------------------------------------------|
E|-----------------------------------------------------------------------------|

e|---------------------------------------------------------------|
B|----10-12----10-12----10-12---------------12/15----15-15-15----|
G|-11-------11-------11------------------------------------------|
D|---------------------------------------------------------------|
A|---------------------------------------------------------------|
E|---------------------------------------------------------------|


[Verse 2]
 
D           A         G
When I get up I gotta get me a plan
G                 A     D
To do whatever I can I suppose
D             A         G 
I'm already working for my uncle sam
G                     A       D
You know he's got me counting Cheerios

[Pre-chorus 2]

G                            A
Crying on my shoulder, I'm allergic to the tears
     G                             F#
It's tiring for this soldier to pretend for all these years

[Chorus 2]

D     A   G
Shine on me
G     A   D
Shine on me
D     A  G
Shine on me
G     A  D
Shine on me

[Solo]
e|------------------------------------------------------------|
B|------------------------------------------------------------|
G|---7-7-7-7-7---------9-9-9-7-7/11-7-7-----------------------|
D|-------------9-9-7------------------------------------------|  x2
A|------------------------------------------------------------|
E|------------------------------------------------------------|

[Pre-chorus 3]

G                         A
Gotta keep my Ray-Bans on so my eyes won't burn
G                              F#
But they shed no light upon my number one concern

[Chorus 3]

D     A   G
Shine on me
G     A   D
Shine on me
D     A  G
Shine on me
G     A  D
Shine on me

D     A   G
Shine on me
G     A   D
Shine on me
D     A  G
Shine on me
G     A  D
Shine on me

(4th Guitar)
e|-----------------------------------------------------------------------------|
B|----10-12----10-12----10-12---------------10-12----10-12----12-10------------|
G|-11-------11-------11------------------11-------11-------11------------------| x2
D|-----------------------------------------------------------------------------|
A|-----------------------------------------------------------------------------|
E|-----------------------------------------------------------------------------|


D     A   G
Shine on me
G     A   D
Shine on me
D     A  G
Shine on me
G     A  D
Shine on me


************************************
| /   Slide up
| \   Slide down
************************************

            
            
Suggest correction
Creating personal tab
Creating personal tab
You can edit any tab online and save it as your Personal.

You can edit, replace or remove any tab part or add personal notes – all changes will be seen only by you.

Personal tabs can be accessed anytime from any device, even offline.
Learn more »
comments
print report bad tab
7 comments total. Showing first comments.
0 reply
CloudCakes 178 Apr 06, 2017 09:49 PM

For the solo after chorus two, it sounds like he slides 9 to 11 rather than 7 to 9. Other than that, great tab!

-2 reply
joshuahneilson 68 Apr 08, 2017 01:35 PM

Mark Knopfler doesn't do any lead playing on this track. He does a rhythm part. "Guitar 3" is Mark's part. Good work on the chords.

+1 reply
gigafish 10 Jun 04, 2017 04:58 PM

I think the bridge goes G A, G F#. Thanks for the tab!

guest
You may want to rate the tab now too:
select rating
Wanna post a correction for this tab? Suggest correction