Oops, an error
Loading. Please wait.

When The Night Comes Tab

version 2
version 2

Whole song

8,454 views 24 this week
4 commentsread comments
1 2 3 4 5
x 3
add to favorites
launch autoscroll
font size
0
reset
how to read this tab
guitar tuner
×
Best way to learn
"When The Night Comes"
Autoscroll
slow
fast
+/-
esc
set tempo
stop
Difficulty
Capo
novice
3rd fret
I don't know if there's any change (like bridge) in the song. But I don't think 
so. Anyway this is the (or the close version) of the main picking pattern. Enjoy!


Capo 3
 
 
         C                  Am                 F                  G

e|-------0---------||-------0---------||-------0---------||-------0--------|
B|---1-------1---1-||---1-------1---1-||---1-------1---0-||---0-------0---0|
G|-----0-------0---||-----2-------2---||-----2-------2---||-----0-------0--|
D|-----------------||-----------------||-----------------||----------------|
A|-3-------3-------||-0-------0-------||-3-------3-------||----------------|
E|-----------------||-----------------||-----------------||-3-------3------|



When the night comes
And you lay your weary head to rest
No more trials, no tests
When the night comes
When the night comes
You dont have to be afraid
Of any choice you made
When the night comes

Dont be afraid
Youre only dreaming…(repeat)

When the night comes
The headlies read
Whatevers in your dreams
When the night comes

When the night comes
And you lay by the one you love
The one who knows you and the things you do
When the night comes

Dont be afraid
Youre only dreaming…(repeat)

When the night comes…(repeat)
Suggest correction
Give kudos to tab author, rate the tab!
1 2 3 4 5
comments
print report bad tab
4 comments total. Showing first comments.
+1 reply
Shifter23 10 Apr 21, 2013 11:35 AM

OMG This must be good, cause I was picking it just like this, and then i saw new version which shows the way i play it. IT IS VERY GOOD THANKS!

0 reply
FilthBag11 10 Feb 24, 2014 08:23 AM

wrong!!!!! here is the correct way to play and make sure you use Capo on the 3rd fret.

C Am F G

e|-------0---------||-------0---------||-------1---------||-------3--------|
B|---1-------1-----||---1-------1-----||---1-------1-----||---3-------3----|
G|-----0-------0---||-----2-------2---||-----2-------2---||-----0-------0--|
D|-----------------||-----------------||-----------------||----------------| repeat throughout
A|-3-------3-------||-0-------0-------||-0-------0-------||-2-------2------|
E|-----------------||-----------------||-----------------||----------------|

guest
You may want to rate the tab now too:
select rating
Wanna post a correction for this tab? Suggest correction