Oops, an error
Loading. Please wait.

Whispered Words Tab

20,865 views 69 this week
1 commentread comment
1 2 3 4 5
excellent!
x 8
add to favorites
launch autoscroll
font size
0
reset
how to read this tab
guitar tuner
Tab Pro tools
  • play this tab
  • loop segment
  • change instrument
  • show fretboard
  • metronome
Autoscroll
slow
fast
+/-
esc
set tempo
stop
Contributor
Difficulty
intermediate
-------------------------------------------------------------------------------
                        Whispered Words - Dan Auerbach
-------------------------------------------------------------------------------
Tabbed by: Thiébaud Weksteen
Email: tweksteen {at} gmail {dot} com
Tuning: Standard

Intro (P.M.)
e|---------5-5-5---------4-4-4---------5-5-5---------4-4-----|
B|---------5-5-5---------5-5-5---------5-5-5---------5-5-----|
G|---------6-6-6---------6-6-6---------6-6-6---------6-6-----|
D|-----------------------------------------------------------|
A|--------------------4---------------------------4----------|
E|--x\x-5---------x\x-----------x\x-5---------x\x------------|


Chorus
  I hear words,   pretty lies  ...
e|---------5-5-5---------4-4-4----------------------------4-4-4--------4-4-4--|
B|---------5-5-5---------5-5-5----------------------------5-5-5--------5-5-5--|
G|---------6-6-6---------6-6-6----------------------------6-6-6--------6-6-6--|
D|----------------------------------------------------------------------------|
A|--------------------4---------x\x-5--4-2--0--------2/4------------4---------|
E|--x\x-5---------x\x-------------------------4--2-0-------------x\x----------|

                                                                    let ring--|
e|---------5-5-5---------4-4-4----------------------------4-4-4---------------|
B|---------5-5-5---------5-5-5----------------------------5-5-5---------------|
G|---------6-6-6---------6-6-6----------------------------6-6-6-----9---------|
D|------------------------------------------------------------------9---------|
A|--------------------4---------\x---5--4-2--0-------2/4------------7---------|
E|--x\x-5---------x\x-------------------------4--2-0-------------\x-----------|


Intro

Chorus

Bridge
                If you need      me you're here  ...
                let ring-|
e|-----------------------------------------------------------------|
B|-----------------------------------------------------------------|
G|--9--9--9--9--9----------7-7-7------6-6-6------7-7-7------6-6-6--|
D|--9--9--9--9--9----------7-7-7------6-6-6------7-7-7------6-6-6--|
A|--7--7--7--7--7----------5-5-5--\x--4-4-4--\x--5-5-5--\x--4-4-4--|
E|-----------------------------------------------------------------|

                                                     let ring-----|
e|----------------------------4-4-4-------------------------------|
B|----------------------------5-5-5-------------------------------|
G|----------------------------6-6-6------9--9--9--9--9------------|
D|---------------------------------------9--9--9--9--9------------|
A|--\x---5--4-2--0-------2/4-------------7--7--7--7--7------------|
E|-----------------4--2-0-------------\x--------------------------|

Chorus

Chorus

Bridge

End (repeat)
e|--------------------|
B|--------------------|
G|----------------7---|
D|--7-7-7-7-7-7---7---|
A|--7-7-7-7-7-7---5---|
E|--5-5-5-5-5-5-------|


| /  slide up
| \  slide down
| x  Mute note
===============================================================================
comments
print report bad tab
1 comment total.
0 reply
alinktothepast9 wrote on September 17 2010, 12:08 am

Great song from my favorite guitarist. Nice tab, man.

I want to post or [tab]
guest
You may want to rate the tab now too:
select rating
Please do not post tabs as comments. Select "correction" instead!