Oops, an error
Loading. Please wait.

Home tab

version 1
version 1

Whole song

14,273 views 15 this week
4 commentsread comments
1 2 3 4 5
x 8
add to favorites
×
Save as Personal and add changes to this tab that will be seen only by you. Learn more ›
×
You can save this tab as Personal to edit and correct it or add notes. All changes will be seen only by you. Learn more »
launch autoscroll
font size
0
reset
how to read this tab
guitar tuner
edit
Autoscroll
slow
fast
+/-
esc
set tempo
stop
Author
Open A tuning: A A C# E C# e

[Intro]
e |-----------------------------|
C#|-----------------------------|
E |-----------------------------|
C#|---3-3-3/5-5-5/3-3-3/5-5-----|
A |-----------------------------|
A |-----------------------------|
      (strum/pick)

[Verses]
e |-----------------------------|
C#|-----------------------------|
E |-----------------------------|
C#|---3-3-3/5-5-5-5/7-7-7-7/8-8-| 2x
A |-----------------------------|
A |-----------------------------|
      (strum/pick)

e |---5-5-5-5----------------------------|
C#|---5-5-5-5----------------------------|
E |---5-5-5-5----------------------------|
C#|---5-5-5-5--3-3-3/5-5-5-5/7-7-7-7/8-8-|
A |---5-5-5-5----------------------------|
A |---5-5-5-5----------------------------|
      (strum)

[Chorus]
e |---7-7-7-7---7--7--7-----5-5-5-5--5-5-5----------------------------|
C#|---7-7-7-7---7--7--7-----5-5-5-5--5-5-5----------------------------|
E |---7-7-7-7--10-10-10-----5-5-5-5--8-8-8----------------------------|
C#|---7-7-7-7---7--7--7-----5-5-5-5--5-5-5--3-3-3/5-5-5-5/7-7-7-7/8-8-|
A |---7-7-7-7---7--7--7-----5-5-5-5--5-5-5----------------------------|
A |---7-7-7-7---7--7--7-----5-5-5-5--5-5-5----------------------------|

[Intro]

[Verse]
I've forgotten how it feels with the carpet under my seat
It's the polyester fibers that wrap around my feet
Feels like home, home

[Verse]
When the cold shakes my bones it's the rug that warms my soul
It's the textile to the skin, and the sensation alone feels like home, home

[Chorus]
So if you ever come 'round to my house take your shoes off at the door
'Cause it's impolite not to; you'll be damaging my floor
'Cause it's my home

[Verse]
When you're down and you're alone it's the train that brings you home
And your mother, brother, sister, father, waitin' at the door
It's so sweet, sweet

[Verse]
Makes me glad I'm only a stone's throw away
Makes me sad that others can't have it the same way
Oh, home, home

instrumental outro:
[Verse] and [Chorus] progressions
Suggest correction
Creating personal tab
Creating personal tab
You can edit any tab online and save it as your Personal.

You can edit, replace or remove any tab part or add personal notes – all changes will be seen only by you.

Personal tabs can be accessed anytime from any device, even offline.
Learn more »
comments
print report bad tab
4 comments total. Showing first comments.
+4 reply
mooresy 10 Dec 19, 2013 12:07 AM

Hi, From the man himself Dan Croll ,the tuning is Open Dropped A IE A A Csharp E Csharp E.
Cheers

0 reply
joecoonz 73 Mar 13, 2014 01:02 AM

Tuning works better in EAC#EAC#, using the A string for the bass notes for the chorus when it is fingerpicked but barring the whole fretboard for when it is strummed. A dropped A on the low E string on an acoustic is a massive fail

guest
You may want to rate the tab now too:
select rating
Wanna post a correction for this tab? Suggest correction