Oops, an error
Loading. Please wait.

Sometimes When We Touch Tab

version 1
version 1

Whole song

Interactive

1,164 views 3 this week
no commentswrite comment
1 2 3 4 5
3 more votes to show rating
add to favorites
launch autoscroll
font size
0
reset
how to read this tab
guitar tuner
Autoscroll
slow
fast
+/-
esc
set tempo
stop
Author
-------------------------------------------------------------------------------
                             SONG NAME - Band Name
-------------------------------------------------------------------------------
Tabbed by:romulo manzano jr
E-mail:stylishup@guitar.com

use this key chords:D,G,A,Em,F#m,Bm
Tuning:standard
part:1
intro:
e|-2-3-5-5-3-2-2-|-0-2-3-3-2-0----|
B|---------------|-------------3--|
G|---------------|----------------|
D|-0-----0-------|----------------|
A|---------------|----------------|
E|---------------|-3-----3--------|

verse:
e|-2------2-------------3-------------0------2-----2------------2------------2------|
B|---3------3-----0-------0-----2-------2------3-----3----2-------2----3-------3----|
G|-----2------2-----0-------0-----2-------2------2-----2----2-------2----4-------4--|
D|-0------0-----------0-------------2--------0-----0----------4------------4--------|
A|------------------------------0-----0--------------------------------2-----2------|
E|----------------3-----3---------------------------------2-----2-------------------|

e|-------0------------0------------------------------------------------------------|
B|-0-------0----2-------2----------------------------------------------------------|
G|---0-------0----2-------2--------------------------------------------------------|
D|-----2------------2--------------------------------------------------------------|
A|--------------0-----0------------------------------------------------------------|
E|-0-----0-------------------------------------------------------------------------|

refrain:
e|-------0------------0------------2-------------2------------0------------2------|
B|-0-------0----2-------2----2-------2-----3-------3----0-------0----3-------3----|
G|---0-------0----2-------2----2-------2-----4-------4----0-------0----4-------4--|
D|-----2------------2------------4-------------4------------2------------4--------|
A|--------------0-----0--------------------2-----2-------------------2-----2------|
E|-0-----0-------------------2-----2--------------------0-----0-------------------|

e|-------3-------------0------------0------------------------------------------------|
B|-0-------0-----2-------2----2-------2----------------------------------------------|
G|---0-------0-----2-------2----2-------2--------------------------------------------|
D|-----0-------------2------------2--------------------------------------------------|
A|---------------0-----0------0-----0------------------------------------------------|
E|-3-----3---------------------------------------------------------------------------|

chorus:
e|-2-----2------------3------------0------------2-----------2------------0------|
B|---3-----3----0-------0----2-------2----2-------2---3-------3----0-------0----|
G|-----2-----2----0-------0----2-------2----2-------2---4-------4----0-------0--|
D|-0-----0----------0------------2------------4-----------4------------2--------|
A|---------------------------0-----0------------------2-----2-------------------|
E|--------------3-----3-------------------2-----2------------------0-----0------|

e|---------------------0-----------------------------------------------------------|
B|-2------0------2-------2---------------------------------------------------------|
G|---2------0------2-------2-------------------------------------------------------|
D|-----2------0------2-------------------------------------------------------------|
A|-0-------------0-----0-----------------------------------------------------------|
E|--------3------------------------------------------------------------------------|

repeat tab of chorus D,G,A,F#m
then do the tab of Em and A

and for the part 2 repeat all start form the intro

Strum this part
BRIDGE:Em,A,D,F#m,Bm,Em,F#m,G,A

do the Tabs for the part 3 of verse
and the chorus tabs
************************************

| /   slide up
| \   slide down
| h   hammer-on
| p   pull-off
| ~   vibrato
| +   harmonic
| x   Mute note
| b   Bend
Suggest correction
Give kudos to tab author, rate the tab!
1 2 3 4 5
comments
print report bad tab
guest
You may want to rate the tab now too:
select rating
Wanna post a correction for this tab? Suggest correction