Oops, an error
Loading. Please wait.

Look For The Woman bass

964 views 1 this week
1 commentread comment
1 2 3 4 5
2 more votes to show rating
add to favorites
×
Save as Personal and add changes to this tab that will be seen only by you. Learn more ›
×
You can save this tab as Personal to edit and correct it or add notes. All changes will be seen only by you. Learn more »
launch autoscroll
font size
0
reset
guitar tuner
edit
Autoscroll
slow
fast
+/-
esc
set tempo
stop
Author
DAN LE SAC VS SCROOBIUS PIP
LOOK FOR THE WOMAN
BASS TAB

i like the bass at the end of the song,
but couldn't find a tab anywhere, so i had a dabble at tabbing
it myself, and them decided I might as well do the whole song..
the song is pretty boring and simple most of the way though.

start: listen to song for timing, bass starts at 12 seconds

G|---------------------7-7-7-7---3-3-3-5-3-5--|
D|-5-5-5-5---3-3-3-3--------------------------|
A|--------------------------------------------|
E|--------------------------------------------| X5

G|---------------------7-7-7-7---3-3-3-5-3-5--|
D|-5-5-5-5---3-3-3-3--------------------------|
A|--------5---------5---------5---------------|
E|--------------------------------------------|

2:40 bass stops.

2:51 starts again.

G|-------------------------7-7-7-7---3-3-3-5-3-5--|
D|-333-5-5-5-5---3-3-3-3--------------------------|
A|------------------------------------------------|
E|------------------------------------------------| X2
the bass gets good here..
G|-------------4-4-4------------------------------7-3--|
D|-3-3-3-575---------6---------3-3-3----------5-3------|
A|---------------------4h5p5---------5h7p5-4-----------|
E|-----------------------------------------------------| X2

G|-------------------7--------3--|  
D|-5--------3--------------------| 
A|-------------------------------|  
E|-------------------------------|  

G|--------------------7-------------7-3--|
D|--5--------3----------6-------5-3------|
A|-----------------------4h5p4-----------|
E|---------------------------------------|

EDDDIIEEEE's TABBBB.
diss song is SICKK yoo

            
            
Suggest correction
Creating personal tab
Creating personal tab
You can edit any tab online and save it as your Personal.

You can edit, replace or remove any tab part or add personal notes – all changes will be seen only by you.

Personal tabs can be accessed anytime from any device, even offline.
Learn more »
Give kudos to tab author, rate the tab!
1 2 3 4 5
comments
print report bad tab
1 comment total.
0 reply
BwanaBoo 10 Apr 27, 2014 11:45 AM

Hehe, it was the bass at the end that made me want to learn it too :) You are such a legend for tabbing this, cheers! ^_^

guest
You may want to rate the tab now too:
select rating
Wanna post a correction for this tab? Suggest correction