Oops, an error
Loading. Please wait.

About As Helpful As You Can Be Without Being Any Help At All tab

1,059 views 1 this week
5 commentsread comments
1 2 3 4 5
2 more votes to show rating
add to favorites
×
Save as Personal and add changes to this tab that will be seen only by you. Learn more ›
×
You can save this tab as Personal to edit and correct it or add notes. All changes will be seen only by you. Learn more »
launch autoscroll
font size
0
reset
how to read this tab
guitar tuner
edit
Autoscroll
slow
fast
+/-
esc
set tempo
stop
Author
Tabbed By: Mike

/ = slide up
\ = slide down
~ = let ring

Standard Tuning

** 3/4 TIMING ** every chord shown represents one full bar

This is the bass riff during the first verse
   C    F    F     G      Am    Em     F     G
e------------------------------------------------|
B------------------------------------------------|
G------------------------------------------------|
D------------------------------------------------|
A--3------------0-----0---0--------------0-----2-|
E-------1-----1---1-3---3-------0------1---1-3---|


C           F          F
Both feet together
G         Am          Em
Slowly progressing
F         G
Always in time
C               F         F
Don't count the feathers
G              Am      Em
Just count the wings
F        G
Everyday counting
C             F         F
Everything's changing
  G         Am         Em
I almost forgot it
    F        G
But then I remembered


(Break)
   C     F     F     G    Am    Em     F     G
e--------------------------------------------------|
B------------------0-1---0-1---0-1---0-1-0---------|
G--0-----0-----0-2-----2-----2-----2-------2-0-----|
D----2-3---2-3---------------------------------2-3-|
A--------------------------------------------------|
E--------------------------------------------------|

   C     F     F     G    Am    Em     F     G
e--------------------------------------------------|
B------------------0-1---0-1---0-1---0-/5~--\3~----|
G--0-----0-----0-2-----2-----2-----2---------------|
D----2-3---2-3-------------------------------------|
A--------------------------------------------------|
E--------------------------------------------------|

      C             F         F
I was thrown in the boat
G           Am       Em
Cast out to sea
F                    G
Friendly with waves
           C             F       F
There were sharks below
G          Am       Em
Hungry for me
     F          G
So I dangled my leg


(Break)

      C         F        F
I lit up like a match
          G        Am      Em
Because i bled gasoline
       F           G
Made a torch of myself
          C             F      F
Until the moon was mine
G             Am        Em
Stars made of me
      F           G
How I lit up that sky


(Break)x2


C           F          F
Both feet together
G         Am          Em
Slowly progressing
F         G
Always in time
C               F         F
Don't count the feathers
G              Am      Em
Just count the wings
F        G
Everyday counting
C             F         F
Everything's changing
  G         Am         Em
I almost forgot it
    F        G
But then I remembered

            
            
Suggest correction
Creating personal tab
Creating personal tab
You can edit any tab online and save it as your Personal.

You can edit, replace or remove any tab part or add personal notes – all changes will be seen only by you.

Personal tabs can be accessed anytime from any device, even offline.
Learn more »
Give kudos to tab author, rate the tab!
1 2 3 4 5
comments
print report bad tab
5 comments total. Showing first comments.
+1 reply
Kathtastrophy 227 May 28, 2012 01:36 PM

I think its perfect as far as chords go but I think the break sounds more accurate this way. Just a suggestion

e--------------------------------------------------|
B--------------------1-----1-----1-----1-----------|
G--0-----0-----0-2-4---2-4---2-4---2-4---4-2-0-----|
D----2-3---2-3---------------------------------2-3-|
A--------------------------------------------------|
E--------------------------------------------------|

0 reply
mojomike 510 May 29, 2012 11:36 AM

haha whoops that was my bad. I put the notes on the wrong strings and didn't realize it. But yea if you just move all the notes up a string it's right.

0 reply
mojomike 510 May 30, 2012 10:38 AM

fix'd. should be right now.

guest
You may want to rate the tab now too:
select rating
Wanna post a correction for this tab? Suggest correction