Oops, an error
Loading. Please wait.

Backbite Tab

88 views 3 this week
no commentswrite comment
1 2 3 4 5
2 more votes to show rating
add to favorites
launch autoscroll
font size
0
reset
how to read this tab
guitar tuner
Autoscroll
slow
fast
+/-
esc
set tempo
stop
Help us to improve Ultimate-Guitar.com Take our survey!
×
Author
Difficulty
intermediate
[Intro]

e|---------------------------------------------------------------------------|
B|---------------------------------------------------------------------------|
G|---------------------------------------------------------------------------|
D|---------------------------------------------------------------------------|
A|-----7-5-7---x-x-4-x-x-5-------7-5-7---x-x-4-x-x-5-------------------------|
E|---0-------------------------0---------------------------------------------|

e|---------------------------------------------------------------------------|
B|---------------------------------------------------------------------------|
G|---------------------------------------------------------------------------|
D|---------------------------------------------------------------------------|
A|-----7-5-7---x-x-4-x-x-5--4-x-x-5-x-x-4------------------------------------|
E|---0-------------------------------------12-\------------------------------|

e|---------------------------------------------------------------------------|
B|---------------------------------------------------------------------------|
G|---------------------------------------------------------------------------|
D|---------------------------------------------------------------------------|
A|-----7-5-7---x-x-4-x-x-5-------7-5-7---x-x-4-x-x-5-------------------------|
E|---0-------------------------0---------------------------------------------|

e|---------------------------------------------------------------------------|
B|---------------------------------------------------------------------------|
G|---------------------------------------------------------------------------|
D|---------------------------------------------------------------------------|
A|-----7-5-7---x-x-4-x-x-5--4-x-x-5-x-x-4-x-x-5------------------------------|
E|---0-----------------------------------------------------------------------|


[Verse 1]

e|---------------------------------------------------------------------------|
B|---------------------------------------------------------------------------|
G|---------------------------------------------------------------------------|
D|---------------------------------------------------------------------------| 
A|-----7-5-7---x-x-4-x-x-5-------7-5-7---x-x-4-x-x-5-------------------------|
E|---0-------------------------0---------------------------------------------|

e|----------------------------------------12--10-----------------------------|
B|-----------------------------------------------12-10-----------------------|
G|-----------------------------------------------------12-9------------------|
D|---------------------------------------------------------------------------|
A|-----7-5-7---x-x-4-x-x-5-------7-5-7---------------------------------------|
E|---0-------------------------0---------------------------------------------|

e|---------------------------------------------------------------------------|
B|---------------------------------------------------------------------------|
G|---------------------------------------------------------------------------|
D|---------------------------------------------------------------------------| 
A|-----7-5-7---x-x-4-x-x-5-------7-5-7---x-x-4-x-x-5-------------------------|
E|---0-------------------------0---------------------------------------------|

e|----------------------------------------12--10-----------------------------|
B|-----------------------------------------------12-10-----------------------|
G|-----------------------------------------------------12-9------------------|
D|---------------------------------------------------------------------------|
A|-----7-5-7---x-x-4-x-x-5-------7-5-7---------------------------------------|
E|---0-------------------------0---------------------------------------------|

e|----------------------------12-10------------------------------------------|
B|----------------------------------12-10------------------------------------|
G|----------------------------------------12--9------------------------------|
D|---5-3-5--------------5-3-5------------------------------------------------|
A|--------x-x-7-x-x-8--------------------------------------------------------|
E|---------------------------------------------------------------------------|


e|----------------------------------------12--10-----------------------------|
B|-----------------------------------------------12-10-----------------------|
G|-----------------------------------------------------12-9------------------|
D|---------------------------------------------------------------------------|
A|-----7-5-7---x-x-4-x-x-5-------7-5-7---------------------------------------|
E|---0-------------------------0---------------------------------------------|


[Chorus]

e|---------------------------------------------------------------------------|
B|---------------------------------------------------------------------------|
G|--9-9-9-9-9-9-9-9--5-5-5-5-5-5-5-5-------------------6-7-8-9---------------|
D|--9-9-9-9-9-9-9-9--5-5-5-5-5-5-5-5--7-7-7-7-7-7-7-7--6-7-8-9---------------|
A|--7-7-7-7-7-7-7-7--3-3-3-3-3-3-3-3--7-7-7-7-7-7-7-7--4-5-6-7---------------|
E|------------------------------------5-5-5-5-5-5-5-5------------------------|


e|---------------------------------------------------------------------------|
B|---------------------------------------------------------------------------|
G|--9-9-9-9-9-9-9-9--5-5-5-5-5-5-5-5-------------------6-7-8-9---------------|
D|--9-9-9-9-9-9-9-9--5-5-5-5-5-5-5-5--7-7-7-7-7-7-7-7--6-7-8-9---------------|
A|--7-7-7-7-7-7-7-7--3-3-3-3-3-3-3-3--7-7-7-7-7-7-7-7--4-5-6-7---------------|
E|------------------------------------5-5-5-5-5-5-5-5------------------------|


[Instrumental]

e|---------------------------------------------------------------------------|
B|---------------------------------------------------------------------------|
G|---------------------------------------------------------------------------|
D|---------------------------------------------------------------------------|
A|-----7-5-7---x-x-4-x-x-5-------7-5-7---x-x-4-x-x-5-------------------------|
E|---0-------------------------0---------------------------------------------|

e|---------------------------------------------------------------------------|
B|---------------------------------------------------------------------------|
G|---------------------------------------------------------------------------|
D|---------------------------------------------------------------------------|
A|-----7-5-7---x-x-4-x-x-5--4-x-x-5-x-x-4-x-x-5------------------------------|
E|---0-----------------------------------------------------------------------|

e|---------------------------------------------------------------------------|
B|---------------------------------------------------------------------------|
G|---------------------------------------------------------------------------|
D|---------------------------------------------------------------------------|
A|-----7-5-7---x-x-4-x-x-5-------7-5-7---x-x-4-x-x-5-------------------------|
E|---0-------------------------0---------------------------------------------|

e|---------------------------------------------------------------------------|
B|---------------------------------------------------------------------------|
G|---------------------------------------------------------------------------|
D|---------------------------------------------------------------------------|
A|-----7-5-7---x-x-4-x-x-5--4-x-x-5-x-x-4-x-x-5------------------------------|
E|---0-----------------------------------------------------------------------|


[Verse 2]

e|---------------------------------------------------------------------------|
B|---------------------------------------------------------------------------|
G|---------------------------------------------------------------------------|
D|---------------------------------------------------------------------------| 
A|-----7-5-7---x-x-4-x-x-5-------7-5-7---x-x-4-x-x-5-------------------------|
E|---0-------------------------0---------------------------------------------|

e|----------------------------------------12--10-----------------------------|
B|-----------------------------------------------12-10-----------------------|
G|-----------------------------------------------------12-9------------------|
D|---------------------------------------------------------------------------|
A|-----7-5-7---x-x-4-x-x-5-------7-5-7---------------------------------------|
E|---0-------------------------0---------------------------------------------|

e|---------------------------------------------------------------------------|
B|---------------------------------------------------------------------------|
G|---------------------------------------------------------------------------|
D|---------------------------------------------------------------------------| 
A|-----7-5-7---x-x-4-x-x-5-------7-5-7---x-x-4-x-x-5-------------------------|
E|---0-------------------------0---------------------------------------------|

e|----------------------------------------12--10-----------------------------|
B|-----------------------------------------------12-10-----------------------|
G|-----------------------------------------------------12-9------------------|
D|---------------------------------------------------------------------------|
A|-----7-5-7---x-x-4-x-x-5-------7-5-7---------------------------------------|
E|---0-------------------------0---------------------------------------------|

e|----------------------------12-10------------------------------------------|
B|----------------------------------12-10------------------------------------|
G|----------------------------------------12--9------------------------------|
D|---5-3-5--------------5-3-5------------------------------------------------|
A|--------x-x-7-x-x-8--------------------------------------------------------|
E|---------------------------------------------------------------------------|


e|----------------------------------------12--10-----------------------------|
B|-----------------------------------------------12-10-----------------------|
G|-----------------------------------------------------12-9------------------|
D|---------------------------------------------------------------------------|
A|-----7-5-7---x-x-4-x-x-5-------7-5-7---------------------------------------|
E|---0-------------------------0---------------------------------------------|


[Chorus]

e|---------------------------------------------------------------------------|
B|---------------------------------------------------------------------------|
G|--9-9-9-9-9-9-9-9--5-5-5-5-5-5-5-5-------------------6-7-8-9---------------|
D|--9-9-9-9-9-9-9-9--5-5-5-5-5-5-5-5--7-7-7-7-7-7-7-7--6-7-8-9---------------|
A|--7-7-7-7-7-7-7-7--3-3-3-3-3-3-3-3--7-7-7-7-7-7-7-7--4-5-6-7---------------|
E|------------------------------------5-5-5-5-5-5-5-5------------------------|


e|---------------------------------------------------------------------------|
B|---------------------------------------------------------------------------|
G|--9-9-9-9-9-9-9-9--5-5-5-5-5-5-5-5-------------------6-7-8-9---------------|
D|--9-9-9-9-9-9-9-9--5-5-5-5-5-5-5-5--7-7-7-7-7-7-7-7--6-7-8-9---------------|
A|--7-7-7-7-7-7-7-7--3-3-3-3-3-3-3-3--7-7-7-7-7-7-7-7--4-5-6-7---------------|
E|------------------------------------5-5-5-5-5-5-5-5------------------------|

e|---------------------------------------------------------------------------|
B|---------------------------------------------------------------------------|
G|---------------------------------------------------------------------------|
D|---------------------------------------------------------------------------|
A|-----7-5-7---x-x-4-x-x-5-------7-5-7---x-x-4-x-x-5-------------------------|
E|---0-------------------------0---------------------------------------------|

e|---------------------------------------------------------------------------|
B|---------------------------------------------------------------------------|
G|---------------------------------------------------------------------------|
D|---------------------------------------------------------------------------|
A|-----7-5-7---x-x-4-x-x-5--4-x-x-5-x-x-4-x-x-5------------------------------|
E|---0-----------------------------------------------------------------------|


[Solo]

e|---------------------------------------------------------------------------|
B|---------------------------------------------------------------------------|
G|---------------------------------------------------------------------------|
D|---------------------------------------------------------------------------| 
A|-----7-5-7---x-x-4-x-x-5-------7-5-7---x-x-4-x-x-5-------------------------|
E|---0-------------------------0---------------------------------------------|

e|---------------------------------------------------------------------------|
B|---------------------------------------------------------------------------|
G|---------------------------------------------------------------------------|
D|---------------------------------------------------------------------------|
A|-----7-5-7---x-x-4-x-x-5--4-x-x-5-x-x-4-x-x-5------------------------------|
E|---0-----------------------------------------------------------------------|

e|---------------------------------------------------------------------------|
B|---------------------------------------------------------------------------|
G|---------------------------------------------------------------------------|
D|---------------------------------------------------------------------------| 
A|-----7-5-7---x-x-4-x-x-5-------7-5-7---x-x-4-x-x-5-------------------------|
E|---0-------------------------0---------------------------------------------|

e|---------------------------------------------------------------------------|
B|---------------------------------------------------------------------------|
G|---------------------------------------------------------------------------|
D|---------------------------------------------------------------------------|
A|-----7-5-7---x-x-4-x-x-5--4-x-x-5-x-x-4-x-x-5------------------------------|
E|---0-----------------------------------------------------------------------|


e|---------------------------------------------------------------------------|
B|---------------------------------------------------------------------------|
G|---------------------------------------------------------------------------|
D|---5-3-5--------------5-3-5------------------------------------------------|
A|--------x-x-7-x-x-8---------x-x-7-x-x-8------------------------------------|
E|---------------------------------------------------------------------------|


[Chorus]

e|---------------------------------------------------------------------------|
B|---------------------------------------------------------------------------|
G|--9-9-9-9-9-9-9-9--5-5-5-5-5-5-5-5-------------------6-7-8-9---------------|
D|--9-9-9-9-9-9-9-9--5-5-5-5-5-5-5-5--7-7-7-7-7-7-7-7--6-7-8-9---------------|
A|--7-7-7-7-7-7-7-7--3-3-3-3-3-3-3-3--7-7-7-7-7-7-7-7--4-5-6-7---------------|
E|------------------------------------5-5-5-5-5-5-5-5------------------------|


e|---------------------------------------------------------------------------|
B|---------------------------------------------------------------------------|
G|--9-9-9-9-9-9-9-9--5-5-5-5-5-5-5-5-------------------6-7-8-9---------------|
D|--9-9-9-9-9-9-9-9--5-5-5-5-5-5-5-5--7-7-7-7-7-7-7-7--6-7-8-9---------------|
A|--7-7-7-7-7-7-7-7--3-3-3-3-3-3-3-3--7-7-7-7-7-7-7-7--4-5-6-7---------------|
E|------------------------------------5-5-5-5-5-5-5-5------------------------|

e|---------------------------------------------------------------------------|
B|---------------------------------------------------------------------------|
G|--9-9-9-9-9-9-9-9--5-5-5-5-5-5-5-5-------------------6-7-8-9---------------|
D|--9-9-9-9-9-9-9-9--5-5-5-5-5-5-5-5--7-7-7-7-7-7-7-7--6-7-8-9---------------|
A|--7-7-7-7-7-7-7-7--3-3-3-3-3-3-3-3--7-7-7-7-7-7-7-7--4-5-6-7---------------|
E|------------------------------------5-5-5-5-5-5-5-5------------------------|


e|---------------------------------------------------------------------------|
B|---------------------------------------------------------------------------|
G|--9-9-9-9-9-9-9-9--5-5-5-5-5-5-5-5-------------------6-7-8-9---------------|
D|--9-9-9-9-9-9-9-9--5-5-5-5-5-5-5-5--7-7-7-7-7-7-7-7--6-7-8-9---------------|
A|--7-7-7-7-7-7-7-7--3-3-3-3-3-3-3-3--7-7-7-7-7-7-7-7--4-5-6-7---------------|
E|------------------------------------5-5-5-5-5-5-5-5------------------------|


[Outro]

e|---------------------------------------------------------------------------|
B|---------------------------------------------------------------------------|
G|---------------------------------------------------------------------------|
D|---------------------------------------------------------------------------|
A|-----7-5-7---x-x-4-x-x-5-------7-5-7---x-x-4-x-x-5-------------------------|
E|---0-------------------------0---------------------------------------------|

e|---------------------------------------------------------------------------|
B|---------------------------------------------------------------------------|
G|---------------------------------------------------------------------------|
D|---------------------------------------------------------------------------|
A|-----7-5-7---x-x-4-x-x-5--4-x-x-5-x-x-4------------------------------------|
E|---0-------------------------------------12-\------------------------------|



************************************

| x  Dead note
| \  Slide down

************************************
Suggest correction
Give kudos to tab author, rate the tab!
1 2 3 4 5
comments
print report bad tab
guest
You may want to rate the tab now too:
select rating
Wanna post a correction for this tab? Suggest correction