Oops, an error
Loading. Please wait.

Road To Nash Vegas Tab

version 1
version 1

Whole song

3,448 views 6 this week
no commentswrite comment
1 2 3 4 5
please rate
add to favorites
launch autoscroll
font size
0
reset
how to read this tab
guitar tuner
Autoscroll
slow
fast
+/-
esc
set tempo
stop
Help us to improve Ultimate-Guitar.com Take our survey!
×
Author
This is the tab for Dan Tyminskis and Ron Blocks 'Road to Nash Vegas'
off the Eric Clapton crossroads guitar festival dvd.This is my second
tab of this song cause ive got the main part of it fairly figured out now.
It's not meant to be 100% accurate but it's the closest I could get it.

The strumming pattern isn't accurate its just approximate e.g it may be:
A-3-3-3-3-3---------------------------|
D-0-0-0-0-0---------------------------|
instead of:
A-3-3-3--------------------------------|
D-0-0-0--------------------------------|

The strumming is fairly quick ,and it's got that picky/strummy bluegrass
feeling to it.You'll have to listen to the song to get the right strumming
pattern cause it varies slighlty throughout the song.
I've got a video of me playing it on youtube pretty much the same as ive
tabbed it here,go to :http://www.youtube.com/watch?v=acJ3oOqoWkk


Tuning is in Double drop D
Capo on 2nd fret

INTRO PART
D----------------------------------------------------------------------------|
B----------------------------------------------------------------------------|
G----------------------------------------------------------------------------|
D----------------------------------------------------------------------------|
A-5-5-5-5-5-5--3-3-3-3-3--3h5-5-3h5-5-5-5-5-5-3-3-3-2-2-2-2-2-0-----3/5-5-5--|
D-0-0-0-0-0-0--0-0-0-0-0--0-0-0-0-0-0-0-0-0-0-0-0-0-0-0-0-0-0-0-5-3-0---0-0--|

intro part continued cause  i ran out of room
D---------------------------------------------------------------------------|
B---------------------------------------------------------------------------|
G---------------------------------------------------------------------------|
D---------------------------------------------------------------------------|
A-5-5--5/8-8-8-8\7-7-7-5--3-3-3-2-2-2-2--3h5-5-5-5-5-5-5-3h5-3-0------------|
D-0-0--0-0-0-0-0-0-0-0-0--0-0-0-0-0-0-0--0-0-0-0-0-0-0-0-0-0-0-0-0-5-3-0----|

MAIN PART
main part1
D-0---0-0--0---0-0-0-0---0-0-0---0-0-0----------------|
B-3---3-3--3---3-3-3-3---3-3-3---3-3-3----------------|
G-0h2-2-2--2p0-0-0-0-0---0-0-0---0-0-0----------------|
D-0---0-0--0---0-0-2-0h2-2-2-2h4-2-0-0----------------|
A-0---0-0--0---0-0-0-0---0-0-0---0-0-2----------------|
D-----------------------------------------------------|

main part2
D-0---0-0-0---0-0-0-0---0-0----------------------------|
B-3---3-3-3---3-3-3-3---3-3----------------------------|
G-0h2-2-2-2p0-0-0-0-0---0-0----------------------------|
D-0---0-0-0---0-0-2-2h4-2-2---------------2p0----------|
A-0---0-0-0---0-0-0-0---0-0-4-2-4-5-0h2p0-----2p0------|
D---------------------------0-0-0-0--------------------|

then repeat main part1.
and then it goes:
D-0---0-0-0---0-0-0-0---0-0-----------------------------------------0-0--|
B-3---3-3-3---3-3-3-3---3-3-----------------------------------------3-3--|
G-0h2-2-2-2p0-0-0-0-0---0-0-----------------------------------------2-2--|
D-0---0-0-0---0-0-2-2h4-2-0-0-0-0-0-0-0-0-0-0-0-0-0-0-0-0-----------0-0--|
A-0---0-0-0---0-0-0-0---0-0-4-2-2-2-2-2-2h4-4-4-4-4-2-2-2----------------|
D---------------------------0-0-0-0-0-0-0-0-0-0-0-0-0-0-0-3b(1/4)-0------|

continue with this
D-------------------0-------------------------------------------|
B-------------------3-------------------------------------------|
G-------------------2-X7approx----------------------------------|
D-0-0-0-0-----------0----------0-0-0-0--------------------------|
A-4-2-2-2----------------------4-2-2-2-/8-8-8-8-7x-5x-3b(1/4)---|
D-0-0-0-0-3b(1/4)-0------------0-0-0-0-/8-8-8-8-7x-5x-3b(1/4)---|
                                                 ^
                                                 quick mute after 7 and 5
then it goes into this quick little PICKING PART
(in this part you can strum more of the open strings
 on the DAD strings while your playing the notes to make it sound more like two guitars)
D---------------------------------------------------|
B---------------------------------------------------|
G---------------------------------------------------|
D--------------3h4-----------3---3-5/7-5-3-0--------|
A---5p0--3p0-------5-3-3-3h5---5--------------------|
D-0----0-----0-----0-0-0-0-0------------------------|

D----------------------------------------------------|
B----------------------------------------------------|
G----------------------------------------------------|
D---------------3h4-----------3---3------------------|
A---5p0---3p0-------5-3-3-3h5---5--------------------|
D-0-----0-----0-----0-0-0-0-0-------0-3-5-3-0--------|
repeat the PICKING PART  then play the MAIN PART again then the PICKING PART .....

When you get to the end of the PICKING PART on the 2nd time round and your
about to play the MAIN PART ,instead of playing:
A-----------------------|
D-0-3-5-3-0-------------|
play:
A-------------------|
D-5-3-0-------------|
cause it flows into the MAIN PART better

I usually just play it in this order:
INTRO PART
MAIN PART
PICKING PART X2
MAIN PART
PICKING PART X4 (after the first time start muting the strings more and more as u repeat  it)
MAIN PART
PICKING PART X4(same thing with muting)

It is a bit repeatitive, obviously its tabbed for only one
 guitar not two, and its missing the solo and a few other parts,
but theres really no other tabs on it so might aswell tab what ive got.
Suggest correction
What's this?
You can suggest a correction to this tab. Community and Mods will review your correction and vote to approve or reject it.
comments
We did not receive enough feedback on this tab! Please rate:
print report bad tab
1 2 3 4 5
guest
You may want to rate the tab now too:
select rating
Please do not post tabs as comments. Select "correction" instead!