Oops, an error
Loading. Please wait.

Road To Nash Vegas tab

version 2
version 2

Whole song

136 views 1 this week
no commentswrite comment
1 2 3 4 5
2 more votes to show rating
add to favorites
×
Save as Personal and add changes to this tab that will be seen only by you. Learn more ›
×
You can save this tab as Personal to edit and correct it or add notes. All changes will be seen only by you. Learn more »
launch autoscroll
font size
0
reset
how to read this tab
guitar tuner
edit
Autoscroll
slow
fast
+/-
esc
set tempo
stop
Author
Difficulty
Please mail me at apericube_27@hotmail.com if you need the pdf version

Legend
L - tied note
x - dead note
h - hammer on/pull off
b - bend
s - slide
~ - vibrato
g - ghost note
> - accentuated note
t - trill
M - palm mute
. - staccato
P - popping (bass)
S - slapping (bass)
+ - tapping
W - wide vibrato
< - fade in
w - whammy bar
= - tremolo picking
v - brush up
^ - brush down
V - pick stroke up
n - pick stroke down


D |----------------|----------------------------|----------------------------|
B |----------------|----------------------------|----------------------------|
G |----------------|----------------------------|----------------------------|
D |--0-----0-------|-----------0-----0----------|-----------0----------------|
A |--0-----0--0M---|--0-----0M----0M----0M-0M---|--0-----0M----0M-0M-0M-0M---|
D |--0-----0--0M---|--0-----0M----0M----0M-0M---|--0-----0M----0M-0M-0M-0M---|


----------------|----------------------------|----------------------------|
----------------|----------------------------|----------------------------|
----------------|----------------------------|----------------------------|
----------------|----------------------------|----------------------------|
--3M-4M-5M-3M---|--0M----0M-0M-3h-5M-5M-5M---|--5M-5M----5M-5M----5M-5M---|
--3M-4M-5M-3M---|--0M----0M-0M-0M----0M-0M---|--0M-0M----0M-0M----0M-0M---|


----------------------------|----------------|----------------------------|
----------------------------|----------------|----------------------------|
----------------------------|----------------|----------------------------|
----------------------------|----------------|----------------------------|
--5M-5M----5M-5M-5M----0M---|--3M-4M-5M-3M---|--5M----5M-5h-8M----7M------|
--0M-0M----0M-0M-0M----0M---|--3M-4M-5M-3M---|--0M----0M-0M-------0M------|


----------------------------|----------------------------|
----------------------------|----------------------------|
----------------------------|----------------------------|
----------------------------|----------------------------|
--7M----5M-5M-3M-5M----5M---|--5M-5M-5M-3M-5M-5M-5M-5M---|
--0M----0M-0M-0M-0M----0M---|--0M-0M-0M-0M-0M-0M-0M-0M---|


----------------------------|----------------------------|
----------------------------|----------------------------|
----------------------------|----------------------------|
----------------------------|----------------------------|
--0M-0M-3M----4M----5M------|--3M----5-----5--5--3h-5----|
--0M-0M-3M----4M----5M------|--3M----0-----0--0--0-------|


----------------------------|----------------------------|
----------------------------|----------------------------|
----------------------------|----------------------------|
----------------------------|----------------------------|
--5--5--5--5--3h-5--5--5----|--5--5--3h-5--5--3h-5--0----|
--0--0--0--0--0-----0--0----|--0--0--0-----0--0-----0----|


----------------------------|----------------------------|
----------------------------|----------------------------|
----------------------------|--------0h-2L-2--2----------|
----------------------------|--------0L-0-----0----------|
--3--0--5--0--3-----0-------|--------0L-0--0-----0--0----|
--0--0--5--0--3-----0-------|--------------0-----0--0----|


----------------------------|----------------------------|
----------------------------|----------------------------|
-----2-----0----------------|----------------------------|
-----0-----0--4-----2-------|--------2L-2-----2-----2----|
--0-----0--0-----0--0-------|--0--0--0h-2-----2-----2----|
--0-----0-------------------|--0--0--------0-----0-------|


----------------------------|----------------------------|
----------------------------|----------------------------|
----------------------------|--------0h-2L-2--2----------|
-----2--------0-------------|--------0L-0-----0----------|
--------0--2--------5-------|--0--0--0L-0--0-----0--0----|
--0--------------4--5-------|--0--0--------0-----0--0----|


----------------------------|----------------------------|
----------------------------|----------------------------|
-----2-----0----------------|----------------------------|
-----0-----0--4-----2-------|--------2--4--2-----0--2----|
--0-----0--0-----0--0-------|--0--0-----------4----------|
--0-----0-------------------|--0--0----------------------|


----------------------------|----------------------------|
----------------------------|----------------------------|
----------------------------|----------------------------|
--0-------------------------|--------------------0-------|
-----4--2-----------2-------|--2--2--2-----0h-2-----2----|
--------0-----------0-------|--0--0--0-------------------|


----------------------------|----------------------------|
----------------------------|----------------------------|
--------0h-2L-2--2----------|-----2-----0----------------|
--------0L-0-----0----------|-----0-----0--4-----2-------|
--0--0--0L-0--0-----0--0----|--0-----0--0-----0--0-------|
--0--0--------0-----0--0----|--0-----0-------------------|


----------------------------|----------------------------|
----------------------------|----------------------------|
----------------------------|----------------------------|
--------2L-2-----2-----2----|-----2--------0-------------|
--0--0--0h-2-----2-----2----|--------0--2--------5-------|
--0--0--------0-----0-------|--0--------------4--5-------|


----------------------------|----------------------------|
----------------------------|----------------------------|
--------0h-2L-2--2----------|-----2-----0----------------|
--------0L-0-----0----------|-----0-----0--4-----2-------|
--0--0--0L-0--0-----0--0----|--0-----0--0-----0--0-------|
--0--0--------0-----0--0----|--0-----0-------------------|


----------------------------|----------------------------|
----------------------------|----------------------------|
----------------------------|----------------------------|
--------2--4--2-----0--2----|--0-------------------------|
--0--0-----------4----------|-----4--2L----2--2--2--2----|
--0--0----------------------|--------0L----0--0--0--0----|


----------------------------|----------------------------|
----------------------------|----------------------------|
----------------------------|----------------------------|
----------------------------|----------------------------|
--2-----------2--2--2-------|--4-----0h-2-----2-----2----|
--0-----------0--0--0-------|-----0--------0-----0-------|


----------------------------|----------------------------|
----------------------------|----------------------------|
----------------------------|----------------------------|
-----0--------0-------------|-----0--------0-----0-------|
--0--------0-----0-----2h---|--4-----0--2-----------2----|
--------0-----------0-------|-----------------0----------|


----------------------------|----------------------------|
----------------------------|----------------------------|
----------------------------|----------------------------|
-----0--------0-------------|--12L12-------0-------------|
--0--------0-----0-----12---|-----12----0-----0-----2----|
--------0-----------0-------|--------0-----------0-------|


----------------------------|----------------------------|
----------------------------|----------------------------|
----------------------------|----------------------------|
----------------------------|----------------------------|
--4-----0h-2--2--2--2--2h---|--5L-5--5h-8--8--8--8--8h---|
--------0L-0--0--0--0--0----|--0-----0L-0--0--0--0--0----|


----------------------------|----------------------------|
----------------------------|----------------------------|
----------------------------|----------------------------|
----------------------------|--------------0--------0----|
--7L-7--7h-5L-5--5-----3L---|--3-----0--------0--3-------|
--0-----7h-5L-5--5-----3L---|--3-----0-------------------|


----------------------------|----------------------------|
----------------------------|----------------------------|
----------------------------|----------------------------|
--------3h-4-----0----------|-----0-----------0----------|
-----0-----------------3----|--------0h-3-----------3----|
--0-----------0-----0-------|--0-----------0-----0-------|


----------------------------------------------------|
----------------------------------------------------|
----------------------------------------------------|
--------------5--7L-7-----------5-----------3-------|
--------3-------------------------------------------|
--0-----------------------0-----------0-------------|


----------------------------|----------------------------|
----------------------------|----------------------------|
----------------------------|----------------------------|
--------0--------------0----|--------3h-4-----0----------|
-----3-----0-----0--3-------|-----0-----------------3----|
--0-----------0-------------|--0-----------0-----0-------|


----------------------------|----------------------------|
----------------------------|----------------------------|
----------------------------|----------------------------|
-----0-----------0----------|----------------------------|
--------0h-3-----------3----|-----3--3-----4-----5-------|
--0-----------0-----0-------|--0-----3-----4-----5-------|


----------------------------|----------------------------|
----------------------------|----------------------------|
----------------------------|----------------------------|
--------------0--------0----|--------3h-4-----0----------|
--3-----0-----0--0--3--0----|-----0--0--------0-----3----|
--3-----0-----0--0--0--0----|--0--0--0-----0--0--0--0----|


----------------------------|
----------------------------|
----------------------------|
-----0-----------0----------|
-----0--0h-3-----0-----3----|
--0--0--0-----0--0--0--0----|


----------------------------------------------------|
----------------------------------------------------|
----------------------------------------------------|
--------------5--7L-7-----------5-----------3-------|
--------3-----0-----------------0-----------0-------|
--0-----0-----0-----------0-----0-----0-----0-------|


----------------------------|----------------------------|
----------------------------|----------------------------|
----------------------------|----------------------------|
--------0--------------0----|--------3h-4-----0----------|
-----3--0--0-----0--3--0----|-----0--0--------0-----3----|
--0--0--0--0--0--0--0--0----|--0--0--0-----0--0--0--0----|


----------------------------|----------------------------|
----------------------------|----------------------------|
----------------------------|----------------------------|
-----0-----------0----------|----------------------------|
-----0--0h-3-----------3----|--0--3--3--5--3-----0-------|
--0--0--0-----0--0--0--0----|--0--0--3--5--3-----0-------|


----------------------------|----------------------------|
----------------------------|----------------------------|
--------0h-2L-2--2----------|-----2-----0----------------|
--------0L-0-----0----------|-----0-----0--4-----2-------|
--------0L-0--0-----0--0----|--0-----0--0-----0--0-------|
--------------0-----0--0----|--0-----0-------------------|


----------------------------|----------------------------|
----------------------------|----------------------------|
----------------------------|----------------------------|
--------2L-2-----2-----2----|-----2--------0-------------|
--0--0--0h-2--0-----0-------|--0-----0--2--------5-------|
--0--0--------0-----0-------|--0--------------4--5-------|


----------------------------|----------------------------|
----------------------------|----------------------------|
--------0h-2L-2--2----------|-----2-----0----------------|
--------0L-0-----0----------|-----0-----0--4-----2-------|
--0--0--0L-0--0-----0--0----|--0-----0--0-----0--0-------|
--0--0--------0-----0--0----|--0-----0-------------------|


----------------------------|----------------------------|
----------------------------|----------------------------|
----------------------------|----------------------------|
--------2--4--2-----0--2----|--0-------------------------|
--0--0-----------4----------|-----4--2L----2--4L----4----|
--0--0----------------------|--------0L----0-------------|


----------------------------|----------------------------|
----------------------------|----------------------------|
----------------------------|--------0h-2L-2--2----------|
----------------------------|--------0L-0-----0----------|
--5L----5--5s-7-----7s-10---|--0--0--0L-0--0-----0--0----|
----------------------------|--0--0--------0-----0--0----|


----------------------------|----------------------------|
----------------------------|----------------------------|
-----2-----0----------------|----------------------------|
-----0-----0--4-----2-------|--------2L-2-----2-----2----|
--0-----0--0-----0--0-------|--0--0--0h-2----------------|
--0-----0-------------------|--0--0--------0-----0-------|


----------------------------|----------------------------|
----------------------------|----------------------------|
----------------------------|--------0h-2L-2--2----------|
-----2--------0-------------|--------0L-0-----0----------|
--------0--2--------5-------|--0--0--0L-0--0-----0--0----|
--0--------------4--5-------|--0--0--------0-----0--0----|


----------------------------|----------------------------|
----------------------------|----------------------------|
-----2-----0----------------|----------------------------|
-----0-----0--4-----2-------|--------2--4--2-----0--2----|
--0-----0--0-----0--0-------|--0--0-----------4----------|
--0-----0-------------------|--0--0----------------------|


----------------------------|----------------------------|
----------------------------|----------------------------|
----------------------------|----------------------------|
--0-------------------------|----------------------------|
-----4--2L----2--2--2--2----|--2-----------2--2--2-------|
--------0L----0--0--0--0----|--0-----------0--0--0-------|


----------------------------|----------------------------|
----------------------------|----------------------------|
----------------------------|----------------------------|
----------------------------|-----0--------0-------------|
--4-----0h-2-----2-----2----|--0--------0-----0-----2h---|
-----0--------0-----0-------|--------0-----------0-------|


----------------------------|----------------------------|
----------------------------|----------------------------|
----------------------------|----------------------------|
-----0--------0-----0-------|-----0--------0-------------|
--4-----0--2-----------2----|--0--------0-----0-----12---|
-----------------0----------|--------0-----------0-------|


----------------------------|----------------------------|
----------------------------|----------------------------|
----------------------------|----------------------------|
--12L12-------0-------------|----------------------------|
-----12----0-----0-----2----|--4-----0h-2--2--2--2--2h---|
--------0-----------0-------|--------0L-0--0--0--0--0----|


----------------------------|----------------------------|
----------------------------|----------------------------|
----------------------------|----------------------------|
----------------------------|----------------------------|
--5L-5--5h-8--8--8--8--8h---|--7L-7--7h-5L-5--5-----3L---|
--0-----0L-0--0--0--0--0----|--0-----7h-5L-5--5-----3L---|


----------------------------|----------------------------|
----------------------------|----------------------------|
----------------------------|----------------------------|
--------------0--------0----|--------3h-4-----0----------|
--3-----0--------0--3-------|-----0-----------------3----|
--3-----0-------------------|--0-----------0-----0-------|


----------------------------|
----------------------------|
----------------------------|
-----0-----------0----------|
--------0h-3-----------3----|
--0-----------0-----0-------|


----------------------------------------------------|
----------------------------------------------------|
----------------------------------------------------|
--------------5--7L-7-----------5-----------3-------|
--------3-------------------------------------------|
--0-----------------------0-----------0-------------|


----------------------------|----------------------------|
----------------------------|----------------------------|
----------------------------|----------------------------|
--------0--------------0----|--------3h-4-----0----------|
-----3-----0-----0--3-------|-----0-----------------3----|
--0-----------0-------------|--0-----------0-----0-------|


----------------------------|----------------------------|
----------------------------|----------------------------|
----------------------------|----------------------------|
-----0-----------0----------|----------------------------|
--------0h-3-----------3----|-----3--3-----4-----5-------|
--0-----------0-----0-------|--0-----3-----4-----5-------|


----------------------------|----------------------------|
----------------------------|----------------------------|
----------------------------|----------------------------|
--------------0--------0----|--------3h-4-----0----------|
--3-----0--------0--3-------|-----0-----------------3----|
--3-----0-------------------|--0-----------0-----0-------|


----------------------------|
----------------------------|
----------------------------|
-----0-----------0----------|
--------0h-3-----------3----|
--0-----------0-----0-------|


----------------------------------------------------|
----------------------------------------------------|
----------------------------------------------------|
--------------5--7L-7-----------5-----------3-------|
--------3-------------------------------------------|
--0-----------------------0-----------0-------------|


----------------------------|----------------------------|
----------------------------|----------------------------|
----------------------------|----------------------------|
--------0--------------0----|--------3h-4-----0----------|
-----3-----0-----0--3-------|-----0-----------------3----|
--0-----------0-------------|--0-----------0-----0-------|


----------------------------|----------------------------||
----------------------------|----------------------------||
----------------------------|----------------------------||
-----0-----------0----------|--------------------0-------||
--------0h-3-----------3----|-----0--3--5--3-----0-------||
--0-----------0-----0-------|--0--0--3--5--3-----0-------||


            
            
Suggest correction
Creating personal tab
Creating personal tab
You can edit any tab online and save it as your Personal.

You can edit, replace or remove any tab part or add personal notes – all changes will be seen only by you.

Personal tabs can be accessed anytime from any device, even offline.
Learn more »
Give kudos to tab author, rate the tab!
1 2 3 4 5
comments
print report bad tab
guest
You may want to rate the tab now too:
select rating
Wanna post a correction for this tab? Suggest correction