Oops, an error
Loading. Please wait.

A Song For River Phoenix Acoustic tab

91 views 3 this week
no commentswrite comment
1 2 3 4 5
3 more votes to show rating
add to favorites
×
Save as Personal and add changes to this tab that will be seen only by you. Learn more ›
×
You can save this tab as Personal to edit and correct it or add notes. All changes will be seen only by you. Learn more »
launch autoscroll
font size
0
reset
how to read this tab
guitar tuner
edit
Autoscroll
slow
fast
+/-
esc
set tempo
stop
[Intro] 
 
   Em                G        Asus2         Em              G        Asus2
e|--------------------------------------|----------------------------x---------|
B|----------------------------------0---|----------------------------0---------|
G|---------0---------------0------2-----|----------0-------------0---2---------|
D|-----2-4---4-2-0-------0------2-------|------2-4---4-2-0-----0-----2---------|
A|---2-----------------2------0---------|----2---------------2-------0---------|
E|-0-----------------3------------------|--0---------------3-------------------| (x2)
 
 
[Verse 1] 
 
   Em                G        Asus2        Em              G         Asus2
e|--------------------------------------|----------------------------x---------|
B|----------------------------------0---|----------------------------0---------|
G|---------0---------------0------2-----|----------0-------------0---2---------|
D|-----2-4---4-2-0-------0------2-------|------2-4---4-2-0-----0-----2---------|
A|---2-----------------2------0---------|----2---------------2-------0---------|
E|-0-----------------3------------------|--0---------------3-------------------|
 
   So many times you said it without...    So many times I stopped and turned away. 
 
   Em                G        Asus2        Em              G         Asus2
e|--------------------------------------|----------------------------x---------|
B|----------------------------------0---|----------------------------0---------|
G|---------0---------------0------2-----|----------0-------------0---2---------|
D|-----2-4---4-2-0-------0------2-------|------2-4---4-2-0-----0-----2---------|
A|---2-----------------2------0---------|----2---------------2-------0---------|
E|-0-----------------3------------------|--0---------------3-------------------|
 
   If I had known that you would soon...   I might have......different way. 
 
 
[Chorus 1] 
 
   C/G                                   C/G
e|------------------------------------|----------------------------------------|
B|------------------------------------|----------------------------------------|
G|---------0--------------------------|----------0-----------------------------|
D|-----2-4---4-2-0----4---0-------0---|------2-4---4-2-0----4---0--------------|
A|---3------------------0---0---0---0-|----3------------------0-----0----------|
E|-3--------------------------2-------|--3------------------------2------------|
 
   I might have walked with you a...     And on the bus I would have... 
 
   C/G                                   C/G                 D
e|------------------------------------|----------------------------------------|
B|------------------------------------|----------------------------------------|
G|---------0--------------------------|----------------------------------------|
D|-----2-4---4-2-0----4---0-------0---|--2-----------0-2-0-------0-2-4~--------|
A|---3------------------0---0---0---0-|----0-3-0---3-----------0---------------|
E|-3--------------------------2-------|----------3-----------2-----------------|
 
   I might have said to you, come on...  Let's get going home. 
 
 
[Verse 2] 
 
   Em                G        Asus2        Em              G         Asus2
e|--------------------------------------|----------------------------x---------|
B|----------------------------------0---|----------------------------0---------|
G|---------0---------------0------2-----|----------0-------------0---2---------|
D|-----2-4---4-2-0-------0------2-------|------2-4---4-2-0-----0-----2---------|
A|---2-----------------2------0---------|----2---------------2-------0---------|
E|-0-----------------3------------------|--0---------------3-------------------|
 
   But these are wishes of a broken...     The scattered ripples on a frozen sea 
 
   Em                G        Asus2        Em              G         Asus2
e|--------------------------------------|----------------------------x---------|
B|----------------------------------0---|----------------------------0---------|
G|---------0---------------0------2-----|----------0-------------0---2---------|
D|-----2-4---4-2-0-------0------2-------|------2-4---4-2-0-----0-----2---------|
A|---2-----------------2------0---------|----2---------------2-------0---------|
E|-0-----------------3------------------|--0---------------3-------------------|
 
   The empty questions of a would be...    I wonder when you will come back to me 
 
 
[Chorus 2] 
 
   C/G                                   C/G
e|------------------------------------|----------------------------------------|
B|------------------------------------|----------------------------------------|
G|---------0--------------------------|----------0-----------------------------|
D|-----2-4---4-2-0----4---0-------0---|------2-4---4-2-0----4---0--------------|
A|---3------------------0---0---0---0-|----3------------------0-----0----------|
E|-3--------------------------2-------|--3------------------------2------------|
 
   I wonder if I'll see you in the...    I'll think of you each time the Raven calls 
 
   C/G                                   C/G                 D
e|------------------------------------|----------------------------------------|
B|------------------------------------|----------------------------------------|
G|---------0--------------------------|----------------------------------------|
D|-----2-4---4-2-0----4---0-------0---|--2-----------0-2-0-------0-2-4~--------|
A|---3------------------0---0---0---0-|----0-3-0---3-----------0---------------|
E|-3--------------------------2-------|----------3-----------2-----------------|
 
   Maybe I'll meet you in that...        Hiding from it all. 
 
 
[Verse 3] 
 
   Em                G        Asus2        Em              G         Asus2
e|--------------------------------------|----------------------------x---------|
B|----------------------------------0---|----------------------------0---------|
G|---------0---------------0------2-----|----------0-------------0---2---------|
D|-----2-4---4-2-0-------0------2-------|------2-4---4-2-0-----0-----2---------|
A|---2-----------------2------0---------|----2---------------2-------0---------|
E|-0-----------------3------------------|--0---------------3-------------------|
 
   But now the winter cloud they blow...   Beneath the greyness of the morning sky. 
 
   Em                G        Asus2        Em              G         Asus2
e|--------------------------------------|----------------------------x---------|
B|----------------------------------0---|----------------------------0---------|
G|---------0---------------0------2-----|----------0-------------0---2---------|
D|-----2-4---4-2-0-------0------2-------|------2-4---4-2-0-----0-----2---------|
A|---2-----------------2------0---------|----2---------------2-------0---------|
E|-0-----------------3------------------|--0---------------3-------------------|
 
   The autumn  leaves are melting into...  It seems less often that I wonder why. 
 
 
[Chorus 3] 
 
   C/G                                   C/G
e|------------------------------------|----------------------------------------|
B|------------------------------------|----------------------------------------|
G|---------0--------------------------|----------0-----------------------------|
D|-----2-4---4-2-0----4---0-------0---|------2-4---4-2-0----4---0--------------|
A|---3------------------0---0---0---0-|----3------------------0-----0----------|
E|-3--------------------------2-------|--3------------------------2------------|
 
   I might have walked with you a...     And on the bus I would have... 
 
   C/G                                   C/G                 D
e|------------------------------------|----------------------------------------|
B|------------------------------------|----------------------------------------|
G|---------0--------------------------|----------------------------------------|
D|-----2-4---4-2-0----4---0-------0---|--2-----------0-2-0-------0-2---4~------|
A|---3------------------0---0---0---0-|----0-3-0---3-----------0---------------|
E|-3--------------------------2-------|----------3-----------2-----------------|

   I might have said to you, come on...  Let's get going home. 

*****
~ Let note ring

*****

            
            
Suggest correction
Creating personal tab
Creating personal tab
You can edit any tab online and save it as your Personal.

You can edit, replace or remove any tab part or add personal notes – all changes will be seen only by you.

Personal tabs can be accessed anytime from any device, even offline.
Learn more »
Give kudos to tab author, rate the tab!
1 2 3 4 5
comments
print report bad tab
guest
You may want to rate the tab now too:
select rating
Wanna post a correction for this tab? Suggest correction