Oops, an error
Loading. Please wait.

All Us Authors Tab

35 views 1 this week
1 commentread comment
1 2 3 4 5
please rate
add to favorites
launch autoscroll
font size
0
reset
how to read this tab
guitar tuner
Tab Pro tools
  • play this tab
  • loop segment
  • change instrument
  • show fretboard
  • metronome
×
Best way to learn
"All Us Authors"
Autoscroll
slow
fast
+/-
esc
set tempo
stop
Contributor
Difficulty
intermediate
All Us Authors
Dananananaykroyd
jjjddd

EADGAe (B string tuned down to A)

e|-------------------------------------|
A|-------------------------------------|
G|-----------------------9/1111--------|
D|------11--11/13---------------9/1111-| x8
A|------------------1111-7/9-9---------|
E|--9-9-9-9-9-/11-0-0-0---------7/9-9--|


e|-------------------------------------------------|
A|-7-7-7777-7777-7-7--9-9--9-9-9-9--9-9-9-9--9-9---|
G|-9-9-9999-9999-9-9--1111-11111111-11111111-1111--|
D|-0-0-0000-0000-0-0--0-0--0-0-0-0--0-0-0-0--0-0---|
A|-------------------------------------------------|
E|-------------------------------------------------|

e|------------------------------------------------------------|
A|-11-11-11111111-11111111-11-11--9-9--9-9-9-9--9-9-9-9--9-9--|
G|-13-13-13131313-13131313-13-13--1111-11111111-11111111-1111-|
D|-0--0--0-0-0-0--0-0-0-0--0--0---0-0--0-0-0-0--0-0-0-0--0-0--|
A|------------------------------------------------------------|
E|------------------------------------------------------------|


lead
   just when   you got    comfy
e|---------------------------16---------19--|
A|-----19---------21------------------------|
G|--18---------18---------18---------18-----|
D|------------------------------------------|
A|------------------------------------------|
E|------------------------------------------|
rhythm
e|---------------------------------------------------------|
A|---------------------------------------------------------|
G|-9--9--9-9--9-9--9-99999--11-11-1111-1111-11-1111111111--|
D|---------------------------------------------------------|
A|-7--7--7-7--0-7--7-07070--9--9--9-9--0-9--9--0-9-0-9-0---|
E|---------------------------------------------------------|

e|------------------------------------------------------------|
A|------------------------------------------------------------|
G|-13-13--1313-1313--13--1313131313--16-16-16-16-16-16-16-16b-|
D|------------------------------------------------------------|
A|-11-11--1111-0-11--11--0-110-110---14-14-14-14-14-14-14-14b-|
E|------------------------------------------------------------|



e|-------------------------------------|
A|-------------------------------------|
G|-----------------------9/1111--------|
D|------11--11/13---------------9/1111-|x4
A|------------------1111-7/9-9---------|
E|--9-9-9-9-9-/11-0-0-0---------7/9-9--|

e|-------------------------------------|
A|-------------------------------------|
G|----------------------9/1111-9/13-13-|x4
D|-----11--11/13-----------------------|
A|-----------------1111-7/9-9--7/11-11-|
E|-9-9-9-9-9-/11-0-0-0-----------------|



e|-------------------------------------------------|
A|-7-7-7777-7777-7-7--9-9--9-9-9-9--9-9-9-9--9-9---|
G|-9-9-9999-9999-9-9--1111-11111111-11111111-1111--|
D|-0-0-0000-0000-0-0--0-0--0-0-0-0--0-0-0-0--0-0---|
A|-------------------------------------------------|
E|-------------------------------------------------|

e|------------------------------------------------------------|
A|-11-11-11111111-11111111-11-11--9-9--9-9-9-9--9-9-9-9--9-9--|
G|-13-13-13131313-13131313-13-13--1111-11111111-11111111-1111-|
D|-0--0--0-0-0-0--0-0-0-0--0--0---0-0--0-0-0-0--0-0-0-0--0-0--|
A|------------------------------------------------------------|
E|------------------------------------------------------------|


lead
   just when   you got    comfy
e|---------------------------16---------19--|
A|-----19---------21------------------------|
G|--18---------18---------18---------18-----|
D|------------------------------------------|
A|------------------------------------------|
E|------------------------------------------|
rhythm
e|---------------------------------------------------------|
A|---------------------------------------------------------|
G|-9--9--9-9--9-9--9-99999--11-11-1111-1111-11-1111111111--|
D|---------------------------------------------------------|
A|-7--7--7-7--0-7--7-07070--9--9--9-9--0-9--9--0-9-0-9-0---|
E|---------------------------------------------------------|

e|------------------------------------------------------------|
A|------------------------------------------------------------|
G|-13-13--1313-1313--13--1313131313--16-16-16-16-16-16-16-16b-|
D|------------------------------------------------------------|
A|-11-11--1111-0-11--11--0-110-110---14-14-14-14-14-14-14-14b-|
E|------------------------------------------------------------|


e|-----------------------------------------------------|
A|-----------------------------------------------------|
G|-999-------------131313-------------131313-----------|
D|-----------------------------------------------------|
A|-777-------------111111-------------111111-----------|
E|-000-------------0-0-0--------------0-0-0------------|
                                  v not so sure about these chords but they sound alright
e|-------------------------------444-----------4--44444-------|
A|-------------------------------000--------------------------|
G|-131313-----111111---------------------4-----4--44444-------|
D|-----------------------222-----222-----2-----2--22222-------|
A|-111111-----9-9-9------000-----000-----0-----0--00000----9\-|
E|-0-0-0------0-0-0-------------------------------------------|

e|--------------------------------|
A|--------------------------------|
G|--------------------------------|
D|--------------------------------|x4
A|--------------------------------|
E|-0-2-2-2-2-2-2-2-2-2-2-2-2-2-2--|
   * * * * * * * * * * * * * * *

e|-----------------------------|
A|-----------------------------|
G|---------------------13------|
D|-11----13-----14--------x16--|
A|---x16----x16----x16-11------|
E|-9-----11-----12-------------|


e|-------------------------------------|
A|-------------------------------------|play this messily (twice) first 
G|-----------------------9/1111--------|
D|------11--11/13---------------9/1111-|x4
A|------------------1111-7/9-9---------|
E|--9-9-9-9-9-/11-0-0-0---------7/9-9--|



e|-----------------------------------------------|
A|-----------------------------------------------|
G|---------13-13--13-13------------13-13--13-13--|
D|-111111----------------12\111111---------------|x2
A|---------11-11--11-11------------11-11--11-11--|
E|-9-9-9-----------------10\9-9-9----------------|


e|-----------------------------------------------|
A|-----------------------------------------------|
G|-----------------------------------------------|
D|-11-11-11111111----111010-111010\--------------|
A|---------------x7------------------------------|
E|-9--9--9-9-9-9-----9-8-8--9-8-8-\--------------|
comments
We did not receive enough feedback on this tab! Please rate:
print report bad tab
1 2 3 4 5
1 comment total.
-2 reply
disfigured-scum wrote on July 2 2014, 04:19 pm, edited at 04:59 pm

shity ass tab

I want to post or [tab]
guest
You may want to rate the tab now too:
select rating
Please do not post tabs as comments. Select "correction" instead!