Oops, an error
Loading. Please wait.

Black Wax Tab

version 1
version 1

Intro

Whole song

8,912 views 9 this week
3 commentsread comments
1 2 3 4 5
excellent!
x 4
add to favorites
launch autoscroll
font size
0
reset
how to read this tab
guitar tuner
Autoscroll
slow
fast
+/-
esc
set tempo
stop
Help us to improve Ultimate-Guitar.com Take our survey!
×
Author
-------------------------------------------------------------------------------
                                        BLACK WAX (INTRO) - Dananananaykroyd 
-------------------------------------------------------------------------------
Tabbed by: Frederick Jakeman

www.myspace.com/dananananaykroyd

Tuning: E A D G A e

e|------------------------------------------------------------|
A|-0--0--0-0-0------------------7--7-7-7--2--2--12-12-12--12--|
G|-6--6--6-6-6--6--6--6-6-6--6--7--7-7-7--2--2--11-11-11--11--|
D|-7--7--7-7-7--7--9--9-9-9--7------------------0--0--0---0---|
A|-0--0--0-0-0--9--7--7-7-7-----------------------------------|
E|---------------------------9--7--7-7-7--2--2--10-10-10--10--|

e|------------------------------------------------------------|
A|-0--0--0-0-0------------------7--7-7-7--2--2----------------|
G|-6--6--6-6-6--6--6--6-6-6--6--7--7-7-7--2--2--1- 1- 1---1---|
D|-7--7--7-7-7--7--9--9-9-9--7------------------2--2--2---2---|
A|-0--0--0-0-0--9--7--7-7-7---------------------0--0--0---0---|
E|---------------------------9--7--7-7-7--2--2----------------|

This was in the Misc Band but they have there own section now so re sumbmitting.
Suggest correction
comments
print report bad tab
3 comments total.
0 reply
sottpwn 67 wrote on May 15 2009, 03:08 pm

It sounds right but I'm sure they have their guitars tuned differently. I'm positive the G string is tuned 1 step up to an A. Maybe their other songs are just tuned differently and Black Wax is in standard? :S

0 reply
sottpwn 67 wrote on May 15 2009, 03:35 pm

Nevermind! My mistake :) My guitar was still in the tuning Johnny Foreigner use and I was watching a video of Dana playing Watch This and it looked as though their guitars were in the same tuning as JoFo. My mistake though!

0 reply
JayMorales 72 wrote on August 6 2010, 07:08 pm

sounds great but when i play it i play it like this
e|------------------------------------------------------------|
0--0--0-0-0------------------7--7-7-7--2--2--12-12-12--12--|
6--6--6-6-6--6--6--6-6-6--6--7--7-7-7--2--2--11-11-11--11--|
7--7--7-7-7--7--9--9-9-9--9------------------0--0--0---0---|
0--0--0-0-0--9--7--7-7-7--7--------------------------------|
-----------------------------7--7-7-7--2--2--10-10-10--10--|

then in between the 10 and 0 on the last chord (^here^) i just mute it with my index finger

guest
You may want to rate the tab now too:
select rating
Wanna post a correction for this tab? Suggest correction