Oops, an error
Loading. Please wait.

Black Wax Tab

version 1
version 1

Whole song

6,538 views 9 this week
no commentswrite comment
1 2 3 4 5
accurate
x 3
add to favorites
launch autoscroll
font size
0
reset
how to read this tab
guitar tuner
Autoscroll
slow
fast
+/-
esc
set tempo
stop
Help us to improve Ultimate-Guitar.com Take our survey!
×
Difficulty
novice
Just the outro so far

Tuning EADG*A*E




|-----------------------------------------------------------------|
|-----------------------------------------------------------------|
|-------14----14----11----14-11----------14----14----14----13-14--|
|--9/11----11----14----14-------14--9/11----11----14----14--------|
|--0--------------------------------0-----------------------------|
|-----------------------------------------------------------------|

|-----------------------------------------------------------------|
|---------------------------------------------------9-------------|
|-------14----14----11----14-11---------------------X-9-----------|
|--9/11----11----14----14--------9/11-11-11-11-9-7--7-7-9-77------|
|--0-----------------------------0-----0--0--0-0-0--5-5-5-55------|
|-----------------------------------------------------------------|

|-----------------------------------------------------------------|
|------------------12---------------------------------------------|
|--6-6-6-----13-------13-----6-6-6-----14----18-14----------------|
|--7-0-7--11----11-------11--7-0-7--16----16-------16-------------|
|--0-0-0---------------------0-0-0--------------------------------|
|-----------------------------------------------------------------|

|-----------------------------------------------------------------|
|------------------12-----------------------9---------------------|
|--6-6-6-----13-------13-----6-6-9-6--------X-9-------------------|
|--7-0-7--11----11-------11--7-7-7-7-9-7-7--7-7-9-77--------------|
|--0-0-0---------------------0-0-0-0-0-0-0--5-5-5-55--------------|
|-----------------------------------------------------------------|
Suggest correction
Give kudos to tab author, rate the tab!
1 2 3 4 5
comments
print report bad tab
guest
You may want to rate the tab now too:
select rating
Please do not post tabs as comments. Select "correction" instead!