Oops, an error
Loading. Please wait.

Black Wax Tab

version 2
version 2

Whole song

149 views 3 this week
3 commentsread comments
1 2 3 4 5
worth learning
x 3
add to favorites
launch autoscroll
font size
0
reset
how to read this tab
guitar tuner
Tab Pro tools
  • play this tab
  • loop segment
  • change instrument
  • show fretboard
  • metronome
×
Best way to learn
"Black Wax"
Autoscroll
slow
fast
+/-
esc
set tempo
stop
Contributor
Difficulty
novice
-------------------------------------------------------------------------------
                             BLACK WAX - Dananananaykroyd
-------------------------------------------------------------------------------
Tabbed by: Rhys Ftb
E-mail:

Tuning: Standard (eBGDAE)

Intro and Verse (Gtr 1)
e|---------------------------------------------------------------------------|
B|------------------------------------2-22-7-77------------------------------|
G|-6-6-666666-6--9-999999-6--7-777777-2-22-7-77------------------------------|
D|-7-7-777777-7--7-777777-7--7-777777----------------------------------------|
A|---------------------------------------------------------------------------|
E|---------------------------------------------------------------------------|

Verse Overlay (Gtr 2)
e|---------------------------------------------------------------------------|
B|--10-10-10-10-10-10-10-10--------------------------------------------------|
G|--9--9--9--9--9--9--9--9---------------------------------------------------|
D|---------------------------------------------------------------------------|
A|---------------------------------------------------------------------------|
E|---------------------------------------------------------------------------|

Prechorus
e|---------------------------------------------------------------------------|
B|---------------------------------------------------------------------------|
G|---11111111111111111111111111111111/18181818181818181818181818181818-------|
D|---9-9-9-9-9-9-9-9-9-9-9-9-9-9-9-9-/16161616161616161616161616161616-------|
A|---------------------------------------------------------------------------|
E|---------------------------------------------------------------------------|

Chorus (Both)
e|-----5--------5-----------5----5---4-5------5--------5-----------5-------------|
B|--------5-7-5---5-75---------5---5-------------5-7-5---5-75---------7-5-5------|
G|---6--------------------6-----------------6--------------------6---------------|
D|--7--------------------7-----------------7--------------------7-----------9-7--|
A|-0--------------------0-----------------0--------------------0-----------------|
E|-------------------------------------------------------------------------------|

Verse (Gtr 1)
e|---------------------------------------------------------------------------|
B|------------------------------------2-22-7-77------------------------------|
G|-6-6-666666-6--9-999999-6--7-777777-2-22-7-77------------------------------|
D|-7-7-777777-7--7-777777-7--7-777777----------------------------------------|
A|---------------------------------------------------------------------------|
E|---------------------------------------------------------------------------|

Verse Overlay (Gtr 2)
e|---------------------------------------------------------------------------|
B|--10-10-10-10-10-10-10-1010-------1010-------------------------------------|
G|--9--9--9--9--9--9--9-------9-7-6------9-7-6-------------------------------|
D|--------------------------------------------7------------------------------|
A|---------------------------------------------------------------------------|
E|---------------------------------------------------------------------------|

Prechorus
e|---------------------------------------------------------------------------|
B|---------------------------------------------------------------------------|
G|---11111111111111111111111111111111/18181818181818181818181818181818-------|
D|---------------------------------------------------------------------------|
A|---9-9-9-9-9-9-9-9-9-9-9-9-9-9-9-9-/16161616161616161616161616161616-------|
E|---------------------------------------------------------------------------|

Chorus (Both)
e|-----5--------5-----------5----5---4-5------5--------5-----------5-------------|
B|--------5-7-5---5-75---------5---5-------------5-7-5---5-75---------7-5-5------|
G|---6--------------------6-----------------6--------------------6---------------|
D|--7--------------------7-----------------7--------------------7-----------9-7--|
A|-0--------------------0-----------------0--------------------0-----------------|
E|-------------------------------------------------------------------------------|

Pre-bridge
e|----------------------------------------------on 2nd time:-------------------|
B|-----------------------------------------------------------------------------|
G|---7-7-7-7-9-9-9-9-11111111-13131313-14---------------------1818181818181818-|
D|-----------------------------------------------------------------------------|
A|---5-5-5-5-7-7-7-7-9-9-9-9--11111111-12--x2-----------------1616161616161616-|
E|-----------------------------------------------------------------------------|

Bridge (Gtr 1)
e|-----------------------------------------------------------------------------|
B|-----------------------------------------------------------------------------|
G|-----------------------------------------------------------------------------|
D|--7-777777-12-7--9-999999-11-12-----------------12---121212----------------7-|
A|--7-777777-12-7--9-999999-11-12-----------------12---121212----------------7-|
E|--5-555555-10-5--7-777777-9--10-----------------10---101010-(follow song)--5-|

Bridge Overlay (Gtr 2)
e|---------------------------------------------------------------------------|
B|---------------------------------------------------------------------------|
G|--99999999-99-7-6---44444444-44-6-7----------------------------------------|
D|---------------------------------------------------------------------------|
A|--77777777-77-5-4---22222222-22-4-5----------------------------------------|
E|---------------------------------------------------------------------------|

Outro
e|-----5--------5-----------5----5---4-5------5--------5-----------5-------------|
B|--------5-7-5---5-75---------5---5-------------5-7-5---5-75---------7-5-5------|
G|---6--------------------6-----------------6--------------------6---------------|
D|--7--------------------7-----------------7--------------------7-----------9-7--|
A|-0--------------------0-----------------0--------------------0-----------------|
E|-------------------------------------------------------------------------------|

e|---------4-5-4---------------9------------4-5-4----------------------------|
B|------2/5-5-------------10-----10------2/5-5---------5/7-5-5---------------|
G|--6-6-----------6-6-6/7----7-------6-6-----------6-6-----------------------|
D|--7-7-----------7-7----------------7-7-----------7-7---------9-7-----------|
A|---------------------------------------------------------------------------|
E|---------------------------------------------------------------------------|


************************************

| /   slide up
| \   slide down
| h   hammer-on
| p   pull-off
| ~   vibrato
| +   harmonic
| x   Mute note
| b   Bend
| pb  Pre-bend
| br  Bend release
| pbr Pre-bend release
| brb Bend release bend

************************************
comments
We did not receive enough feedback on this tab! Please rate:
print report bad tab
1 2 3 4 5
3 comments total.
0 reply
JjjDdd wrote on July 1 2014, 04:17 pm

Lack of accuracy. Clearly wrong.

0 reply
JjjDdd wrote on July 1 2014, 04:17 pm

Lack of accuracy. Clearly wrong.

0 reply
fatgleeson wrote on August 14 2014, 02:33 pm

Clearly wrong.

I want to post or [tab]
guest
You may want to rate the tab now too:
select rating
Please do not post tabs as comments. Select "correction" instead!