Oops, an error
Loading. Please wait.

Good Time Tab

version 2
version 2

Whole song

224 views 1 this week
1 commentread comment
1 2 3 4 5
please rate
add to favorites
launch autoscroll
font size
0
reset
how to read this tab
guitar tuner
Autoscroll
slow
fast
+/-
esc
set tempo
stop
Help us to improve Ultimate-Guitar.com Take our survey!
×
Author
Difficulty
intermediate
Good Time 
Dananananaykroyd 
jjjddd
EADGAe

intro
e|--------------------------------------------------------------------------------|
A|------------------------------------------------------------------7------9/11---|
G|--------------------------------6-6-6h9-\4--------------------------------------|
D|-----------------7-7-7-6-------------------6------------------------------------|
A|--7---7--(7)-------------7------------------------------------5/7----7/9--------|
E|--0---0--(0)-*7------------7--7--------------xxx4--4--2--0----------------------|
            ^ this is played on another guitar as the melody part* starts
              the same time this is played
e|-------------------------------------------------------------|
A|-------------------------------------------------------------|
G|-------------------6-6-6h9-\4--------------------------------|
D|----7-7-7-6-------------------6------------------------------|
A|------------7-----------------------------------0-1-0---2----|
E|--7-----------7--7-----------------4-4-2-4--2-4-------4-0----|

first verse
e|-------------------------------------------------------------------|
A|-----------------------------------------------------7------9/11---|
G|-------------------6-6-6h9-\4--------------------------------------|
D|----7-7-7-6-------------------6------------------------------------|
A|------------7------------------------------------5/7----7/9--------|
E|--7-----------7--7--------------xxx4--4--2--0----------------------|
                                                                                x2
e|-------------------------------------------------------------|
A|-------------------------------------------------------------|
G|-------------------6-6-6h9-\4--------------------------------|
D|----7-7-7-6-------------------6------------------------------|
A|------------7-----------------------------------0-1-0---2----|
E|--7-----------7--7-----------------4-4-2-4--2-4-------4-0----|
                                     ^slow this part a bit on the second play

chorus
e|--------------------------|
A|--------------------------|
G|--------------------------|
D|--6-6-6-6-6-6-------------| x9
A|--4-4-4-4-4-4-2~~~~~~~~~--|
E|--------------0~~~~~~~~~--|

second verse
e|-------------------------------------------------------------------|
A|-----------------------------------------------------7------9/11---|
G|-------------------6-6-6h9-\4--------------------------------------|
D|----7-7-7-6-------------------6------------------------------------|
A|------------7------------------------------------5/7----7/9--------|
E|--7-----------7--7--------------xxx4--4--2--0----------------------|

e|---------------------------------|
A|---------------------------------|
G|---------------------------------|
D|----7-7-7-6----------------------|
A|------------7--------------------|
E|--7-----------7--7-9\\\\\--------|

e|-------------------------------------------------------------------|
A|-----------------------------------------------------7------9/11---|
G|-------------------6-6-6h9-\4--------------------------------------|
D|----7-7-7-6-------------------6------------------------------------|
A|------------7------------------------------------5/7----7/9--------|
E|--7-----------7--7--------------xxx4--4--2--0----------------------|

e|-------------------------------------------------------------|
A|-------------------------------------------------------------|
G|-------------------6-6-6h9-\4--------------------------------|
D|----7-7-7-6-------------------6------------------------------|
A|------------7-----------------------------------0-1-0--------|
E|--7-----------7--7-----------------4-4-2-4--2-4-------4------|


chorus 2
e|--------------------------|
A|--------------------------|
G|--------------------------|
D|--6-6-6-6-6-6-------------| x9
A|--4-4-4-4-4-4-2~~~~~~~~~--|
E|--------------0~~~~~~~~~--|


'temperature rises...'
e|---------------------------------------------------------|
A|---------------------------------------------------------|
G|---------------------------------------------------------|
D|-14-14-14--13-13-13--11-11-11-9-9-9--8~~~-----9~~~-------| x4
A|-12-12-12--11-11-11--9--9--9--7-7-7--6~~~-----7~~~-------|
E|---------------------------------------------------------|

chorus
e|--------------------------|
A|--------------------------|
G|--------------------------|
D|--6-6-6-6-6-6-------------| x9
A|--4-4-4-4-4-4-2~~~~~~~~~--|
E|--------------0~~~~~~~~~--|


e|-x-x---x-x---x---x-x-x---x-x--x-x----x---x-x-+3--|
A|-x-x---x-x---x---x-x-x---x-x--x-x----x---x-x-+3--|
G|-x-x---x-x---x---x-x-x---x-x--x-x----x---x-x-+3--| x2
D|-x-x---x-x---x---x-x-x---x-x--x-x----x---x-x-+3--|
A|-------------------------------------------------|
E|-------------------------------------------------|

end
e|-------------------------------------------------------------------|
A|-----------------------------------------------------7------9/11---|
G|-------------------6-6-6h9-\4--------------------------------------|
D|----7-7-7-6-------------------6------------------------------------|
A|------------7------------------------------------5/7----7/9--------|
E|--7-----------7--7--------------xxx4--4--2--0----------------------|

e|----------------------------------------------------------------|
A|-----------///--------------------------------------------------|
G|-----------///--------------------------------------------------|
D|----7-7-7-6///--------------------------------------------------|
A|---------------------------------------------------0-1-0---2----|
E|--7-------------------[bass]----------4-4-2-4--2-4-------4-0----|
Suggest correction
What's this?
You can suggest a correction to this tab. Community and Mods will review your correction and vote to approve or reject it.
comments
We did not receive enough feedback on this tab! Please rate:
print report bad tab
1 2 3 4 5
1 comment total.
-2 reply
disfigured-scum 467 wrote on July 2 2014, 04:20 pm, edited at 05:00 pm

****ing homo band

guest
You may want to rate the tab now too:
select rating
Please do not post tabs as comments. Select "correction" instead!