Oops, an error
Loading. Please wait.

Hey Everyone Tab

version 1
version 1

Whole song

1,443 views 1 this week
2 commentsread comments
1 2 3 4 5
1 last vote to show rating
add to favorites
launch autoscroll
font size
0
reset
how to read this tab
guitar tuner
Autoscroll
slow
fast
+/-
esc
set tempo
stop
Help us to improve Ultimate-Guitar.com Take our survey!
×
Author
Hey Everyone 
Hey Everyone!
Dananananaykroyd 

This is just a rough idea. The twiddly riff obviously isn't
100% so any help with that would be great. I used the following
video to help me figure parts of it out: 

http://www.citylife.co.uk/video/music/18843223001/Dananananaykroyd%20...In%20Session

I'm going to try and do more but they are so damn hard to tab out, 
so again any help would be appreciated!

Enjoy.


e|----------------------|
B|----------------------|
G|-7--7-7-7--4/7--7-7-7-| 
D|-x--x-x-x--x-x--x-x-x-|
A|-5--5-5-5--2/5--5-5-5-|
E|----------------------|

|------------------------|
|------------------------|
|-7--7-9-11--4/7--11-9-7-|
|-x--x-x-x---x-x--x--x-x-|
|-5--5-7-9---2/5--9--7-5-|
|------------------------|

|-------------------------------|
|------------7------------------|
|--------9-7----------------9-7-|
|----7p0----------------7p0-----|
|-7h9---9------------7h9---9----|
|--------------99999------------|

|----------------------|
|----------------------|
|-7--7-7-7--4/7--7-7-7-|
|-x--x-x-x--x-x--x-x-x-| 
|-5--5-5-5--2/5--5-5-5-|
|----------------------|

|------------------------|
|------------------------|
|-7--7-9-11--4/7--11-9-7-|
|-x--x-x-x---x-x--x--x-x-|
|-5--5-7-9---2/5--9--7-5-|
|------------------------|

|------------|
|------------|
|-4~~~/16~~~-|
|-x----x-----|
|-2~~~/14~~~-|
|------------|
Suggest correction
Give kudos to tab author, rate the tab!
1 2 3 4 5
comments
print report bad tab
2 comments total.
-1 reply
sottpwn 67 May 18, 2009 01:49 PM

|-------------------------------|
|------------7------------------|
|--------9-7----------------9-7-|
|----7p0----------------7p0-----|
|-7h9---9------------7h9---9----|
|--------------99999------------|

should be

|-------------------------------|
|------------7------------------|
|--------9-7----------------9-7-|
|----7p0----------------7p0-----|
|-7h9---9------------7h9---9----|
|--------------77777------------|

0 reply
JjjDdd 1,198 Jan 29, 2012 06:34 PM


hey, several years late but in guitarist david roy's video of this song he plays the twiddly part like this
e|-------------------------------------------------|
A|------------------9~~----------------------------|
G|--------------9-7-------------------7---9--------|
D|---------7p0-------------------7p0---------------|
A|-0h7h9-9-----9-9-9-----0h7h9-9----9---9----------|
E|-------------------------------------------7777--|
****
e|-------------------------------------------------|
A|------------------9~~----------------------------|
G|--------------9-7--------------------------0h4---|
D|---------7p0-------------------7p0---0h4h5-------|
A|-0h7h9-9-----9-9-9-----0h7h9-9----9--------------|
E|-------------------------------------------------|

guest
You may want to rate the tab now too:
select rating
Wanna post a correction for this tab? Suggest correction