Oops, an error
Loading. Please wait.

Muscle Memory Tab

version 1
version 1

Whole song

1,323 views 6 this week
1 commentread comment
1 2 3 4 5
accurate
x 6
add to favorites
launch autoscroll
font size
0
reset
how to read this tab
guitar tuner
Autoscroll
slow
fast
+/-
esc
set tempo
stop
Help us to improve Ultimate-Guitar.com Take our survey!
×
Author
JjjDdd 1,210
Muscle Memory
Dananananaykroyd
jjjddd
EADGAe
    -

FINALLY, A (SEMI) CORRECT TAB OF THIS SONG! HUZZAH

intro/chorus
e|--------------------------------------------------------------|
A|--5-5--5/7-7--7-7--7/9--9--9-9--9/10--10----------------------|
G|--0-0--0---0--0-0--0----0--0-0--0-----0-----------------------|
D|--0-0--0---0--0-0--0----0--7-7--7/9---9-----1010101010101010--|
A|--5-5--5/7-7--7-7--7/9--9--9-9--9/10--10----1010101010101010--|
E|--------------5-5--5/7--7-------------------8-8-8-8-8-8-8-8---|   
                                                                     x 3
e|--------------------------------------------------------------|
A|--5-5--5/7-7--7-7--7/9--9--9-9--9/10--10----------------------|
G|--0-0--0---0--0-0--0----0--0-0--0-----0-----------------------|
D|--0-0--0---0--0-0--0----0--7-7--7/9---9-----1010101012121212--|
A|--5-5--5/7-7--7-7--7/9--9--9-9--9/10--10----1010101010101010--|
E|--------------5-5--5/7--7-------------------8-8-8-8-8-8-8-8---|



verse
e|------------------------------------------------------------0h2h3-0h3h5-0h5h7-0h7h10-|
A|---------------------5\2---------------5/10------------------------------------------|
G|--------0h2/4-0------0----0h2/4-0------0-----0h2/4-0---------------------------------|
D|----------------2/4---------------2/4-----------------2p0----------------------------|
A|-------------------------------------------------------------------------------------|
E|--3--3-------------------------------------------------------------------------------|

e|-------------------------------------------------------------------------------------|
A|---------------------5\2-------------------------------------------------------------|
G|--------0h2/4-0------0----0h2/4-0---------------0h2/4-0------5-5-/-7-7-/-9-9-/-12----|
D|----------------2/4---------------2p0-2p0---------------2p0--------------------------|
A|-------------------------------------------------------------3-3-/-5-5-/-7-7-/-10----|
E|--3--3-------------------------------------3--3--------------------------------------|


pre-chorus
                                      [bend all the strings behind the nut]
e|-----------------------------------------0bu-------------------|
A|-----------------------------------------0bu-------------------|
G|--5-5-5555--555-5-5555--555-5-5555-5-5---0bu-------------------|
D|-----------------------------------------0bu-------------------|
A|--3-3-3333--333-3-3333--333-3-3333-3-3---0bu-------------------|
E|---------------------------------------------------------------|

chorus
e|--------------------------------------------------------------|
A|--5-5--5/7-7--7-7--7/9--9--9-9--9/10--10----------------------|
G|--0-0--0---0--0-0--0----0--0-0--0-----0-----------------------|
D|--0-0--0---0--0-0--0----0--7-7--7/9---9-----1010101010101010--|
A|--5-5--5/7-7--7-7--7/9--9--9-9--9/10--10----1010101010101010--|
E|--------------5-5--5/7--7-------------------8-8-8-8-8-8-8-8---|   
                                                                     x 3
e|--------------------------------------------------------------|
A|--5-5--5/7-7--7-7--7/9--9--9-9--9/10--10----------------------|
G|--0-0--0---0--0-0--0----0--0-0--0-----0-----------------------|
D|--0-0--0---0--0-0--0----0--7-7--7/9---9-----1010101012121212--|
A|--5-5--5/7-7--7-7--7/9--9--9-9--9/10--10----1010101010101010--|
E|--------------5-5--5/7--7-------------------8-8-8-8-8-8-8-8---|


verse
e|------------------------------------------------------------0h2h3-0h3h5-0h5h7-0h7h10-|
A|---------------------5\2---------------5/10------------------------------------------|
G|--------0h2/4-0------0----0h2/4-0------0-----0h2/4-0---------------------------------|
D|----------------2/4---------------2/4-----------------2p0----------------------------|
A|-------------------------------------------------------------------------------------|
E|--3--3-------------------------------------------------------------------------------|

e|-------------------------------------------------------------------------------------|
A|---------------------5\2-------------------------------------------------------------|
G|--------0h2/4-0------0----0h2/4-0---------------0h2/4-0------5-5-/-7-7-/-9-9-/-12----|
D|----------------2/4---------------2p0-2p0---------------2p0--------------------------|
A|-------------------------------------------------------------3-3-/-5-5-/-7-7-/-10----| 
E|--3--3-------------------------------------3--3--------------------------------------|


pre-chorus
                                      [bend all the strings behind the nut]
e|-----------------------------------------0bu-------------------|
A|-----------------------------------------0bu-------------------|
G|--5-5-5555--555-5-5555--555-5-5555-5-5---0bu-------------------|
D|-----------------------------------------0bu-------------------|
A|--3-3-3333--333-3-3333--333-3-3333-3-3---0bu-------------------|
E|---------------------------------------------------------------|


after this the rhythm guitar plays the chorus and a lead guitar plays a solo over the top

Solo 
e|-----------------------------------------------------------------------14bu--|
A|--------17-17-17-17-14---17-14--17-17-17-17-14--17-14-17bu-14-12-14-12-------|
G|-----------------------------------------------------------------------------|
D|-----------------------------------------------------------------------------|
A|-----------------------------------------------------------------------------|
E|-----------------------------------------------------------------------------|
                                
e|--------------------------------------------------------10-12-10bu------|
A|--------17-17-17-17-14--17-14-17bu-14-12-14-12-10-12-14-----------------|
G|------------------------------------------------------------------------|
D|------------------------------------------------------------------------|
A|------------------------------------------------------------------------|
E|------------------------------------------------------------------------|

cant figure out the rest of the solo sorry

                Breakdown
e|--[harmonics]-------------------------------------------------|
A|--[harmonics]-------------------------------------------------|
G|--[harmonics]----7-7-77777-111111-1111-9-9-9999-121212-12-12--|
D|--[harmonics]-------------------------------------------------|
A|--[harmonics]----5-5-55555-9-9-9--9-9--7-7-7777-101010-10-10--|
E|--[harmonics]-------------------------------------------------|

e|-----------------------------------------------|
A|-----------------------------------------------|
G|--7--9--11-9--7--9--11-11-12--7-9-11-12-14bu---|
D|-----------------------------------------------|
A|--5--7--9--7--5--7--9--9--10--5-7-9--10-12bu---|
E|-----------------------------------------------|

verse
e|------------------------------------------------------------0h2h3-0h3h5-0h5h7-0h7h10-|
A|---------------------5\2---------------5/10------------------------------------------|
G|--------0h2/4-0------0----0h2/4-0------0-----0h2/4-0---------------------------------|
D|----------------2/4---------------2/4-----------------2p0----------------------------|
A|-------------------------------------------------------------------------------------|
E|--3--3-------------------------------------------------------------------------------|

e|-------------------------------------------------------------------------------------|
A|---------------------5\2-------------------------------------------------------------|
G|--------0h2/4-0------0----0h2/4-0---------------0h2/4-0------5-5-/-7-7-/-9-9-/-12----|
D|----------------2/4---------------2p0-2p0---------------2p0--------------------------|
A|-------------------------------------------------------------3-3-/-5-5-/-7-7-/-10----| 
E|--3--3-------------------------------------3--3--------------------------------------|


pre-chorus
                                      [bend all the strings behind the nut]
e|-----------------------------------------0bu-------------------|
A|-----------------------------------------0bu-------------------|
G|--5-5-5555--555-5-5555--555-5-5555-5-5---0bu-------------------|
D|-----------------------------------------0bu-------------------|
A|--3-3-3333--333-3-3333--333-3-3333-3-3---0bu-------------------|
E|---------------------------------------------------------------|

chorus
e|--------------------------------------------------------------|
A|--5-5--5/7-7--7-7--7/9--9--9-9--9/10--10----------------------|
G|--0-0--0---0--0-0--0----0--0-0--0-----0-----------------------|
D|--0-0--0---0--0-0--0----0--7-7--7/9---9-----1010101010101010--|
A|--5-5--5/7-7--7-7--7/9--9--9-9--9/10--10----1010101010101010--|
E|--------------5-5--5/7--7-------------------8-8-8-8-8-8-8-8---|   

e|--------------------------------------------------------------|
A|--5-5--5/7-7--7-7--7/9--9--9-9--9/10--10----------------------|
G|--0-0--0---0--0-0--0----0--0-0--0-----0-----------------------|
D|--0-0--0---0--0-0--0----0--7-7--7/9---9-----1010101012121212--|
A|--5-5--5/7-7--7-7--7/9--9--9-9--9/10--10----1010101010101010--|
E|--------------5-5--5/7--7-------------------8-8-8-8-8-8-8-8---|

end riff
e|-------------------------------|
A|-------------------------------|
G|--------0h2/4-0----------------|
D|----------------2p0-2p0--------|
A|-------------------------------|
E|--3--3------------------3--3---|
Suggest correction
What's this?
You can suggest a correction to this tab. Community and Mods will review your correction and vote to approve or reject it.
comments
print report bad tab
1 comment total.
-2 reply
disfigured-scum 467 wrote on July 2 2014, 04:21 pm, edited at 05:01 pm

this song and band blows goat dick

guest
You may want to rate the tab now too:
select rating
Please do not post tabs as comments. Select "correction" instead!