Oops, an error
Loading. Please wait.

Some Dresses Tab

version 1
version 1

Intro

Whole song

Interactive

5,085 views 9 this week
5 commentsread comments
1 2 3 4 5
accurate
x 3
add to favorites
launch autoscroll
font size
0
reset
how to read this tab
guitar tuner
Autoscroll
slow
fast
+/-
esc
set tempo
stop
Help us to improve Ultimate-Guitar.com Take our survey!
×
Author
                     Dananananaykroyd - SOME DRESSES

Informal site: http://dananananaykroyd.co.uk/

Ok i know this isn't all right, it's just a guide and im hoping some pro will come 
and sort it out.

hard to get this song on internet, listen to a recording here

http://hypem.com/artist/dananananaykroyd

Tabbed by:mattsem

Email:mattsem@gmail.com



e|---------------------------------------------------------------------|
B|----------------------------------------------7-x-x------------------|
G|------------------------------------------------x-x--9 x-9-----------|
D|-------4-x-5-x-7-x-5x5-x-----7-----------4------x-x--7-x-7-----------|
A|-------5-x-7-x-9-x-7x7-x--7s9--9s7-----5---5----x-x--9-x-9-----------|
E|---------------------------------------------------------------------|

                                      im pretty sure this slide bit's wrong
e|---------------------------------------------------------------------|
B|------------------------------------------777777---------------------|
G|------------------------------------------777777---------------------|
D|-----4-x-5-x-7-x-5x5-x-----9-9-7----------444444-------5----7--------|
A|-----5-x-7-x-9-x-7x7-x-----------10-------555555---5s7--7s9--9s7-----|
E|---------------------------------------------------------------------|


e|---------------------------------------------------------------------|
B|------------------------------------------------7-x-x----------------|
G|--------------------------------------------------x-x--9 x-9---------|
D|-------4-x-5-x-7-x-5---5-x-----7-----------4------x-x--7-x-7---------|
A|-------5-x-7-x-9-x-7---7-x--7s9--9s7-----5---5----x-x--9-x-9---------|
E|---------------------------------------------------------------------|

                                           not sure about this chord either
e|---------------------------------------------------------------------|
B|------------------------------------------777777777777---------------|
G|------------------------------------------777777777777---------------|
D|-----4-x-5-x-7-x-5x5-x-------9-9-7--------444444444444---------------|
A|-----5-x-7-x-9-x-7x7-x-------------10-----555555555555---------------|
E|---------------------------------------------------------------------|


Overall the whole thing's a bit sketchy, but it fits with the music well enough to play along to.

any qs just email ^

cheers

mattsem


|s = slide
|x = Mute note
===============================================================================
Suggest correction
Give kudos to tab author, rate the tab!
1 2 3 4 5
comments
print report bad tab
5 comments total. Showing first comments.
0 reply
Jakeman0 170 wrote on February 6 2009, 10:39 pm

e|------------------------------------------------------------|
B|------------------------------------------xx----------------|
G|---------------------------------------11-xx--9-9-----------|
D|-------4-x-5-x-7-x-5x-----7----------7----xx----------------|
A|-------5-x-5-x-5-x-7x--7s9--9s7----9------xx--9-9-----------|
E|---------------------------------7--------------------------|

e|------------------------------------------------------------|
B|------------------------------------------------------------|
G|------------------------4p0---------------------------------|
D|-------4-x-5-x-7-x-5x-5-----5-7---------------9-------12----|
A|-------5-x-5-x-5-x-3x-3----------x-x-5--10-10---10-10----10-|
E|---------------------------------x-x-3----------------------|

0 reply
mattsem 46 wrote on March 17 2009, 06:12 pm

great mate!! except maybe not pull off from 4 to 0 i dunno just a thought
thanks!

0 reply
sottpwn 67 wrote on March 25 2009, 06:21 pm

I love you two people.

guest
You may want to rate the tab now too:
select rating
Please do not post tabs as comments. Select "correction" instead!