Oops, an error
Loading. Please wait.

Some Dresses Tab

version 1
version 1

Whole song

Interactive

699 views 1 this week
3 commentsread comments
1 2 3 4 5
please rate
add to favorites
launch autoscroll
font size
0
reset
how to read this tab
guitar tuner
Tab Pro tools
  • play this tab
  • loop segment
  • change instrument
  • show fretboard
  • metronome
×
Best way to learn
"Some Dresses"
Autoscroll
slow
fast
+/-
esc
set tempo
stop
Contributor
Difficulty
intermediate
email: jdgilbert@ntlworld.com
tuning standard BUT WITH THE B STRING DOWN ONE STEP
I missed out a lot of the muted notes (there's too many)
intro:

e|--------------------------------------------------|
A|--------------------------------------------------|
G|------------------------------------11------9-9---|
D|-------4--5--7--5------7p0------------------------|
A|-------5--5--5--7---7s9-----9---9-----------9-9---|
E|------------------------------7---7-----xxx-7-7---|

e|------------------------------------------|
A|------------------------------------------|
G|-----------4-4-2------0-------------7p0---|
D|-4-5-7-5--2------5-5555------9p0--------0-|
A|-5-5-5-3-3---------5555-5/10-----10-------|
E|-------------------3333-------------------|
                     ***
e|--------------------------------------------------|
A|--------------------------------------------------|
G|------------------------------------11------9-9---|
D|-------4--5--7--5------7p0------------------------|
A|-------5--5--5--7---7s9-----9---9-----------9-9---|
E|------------------------------7---7-----xxx-7-7---|
          
e|---------------------------------------------------5+-----|
A|---------------------------------------------------5+-----|
G|-------------------4~-4-2--------------------------5+-----|
D|-------4--5--7--5--2~-----5------5-5-5-5-5-5-5-5---5+-----|
A|-------5--5--5--3--3~------------5-5-5-5-5-5-5-5---5+-----|
E|---------------------------------3-3-3-3-3-3-3-3---5+-----|
                                   * * * * * * * *
verse
e|--------------------------------------------------|
A|--------------------------------------------------|
G|------------------------------------11------9-9---|
D|-------4--5--7--5------7p0------------------------|
A|-------5--5--5--7---7s9-----9---9-----------9-9---|
E|------------------------------7---7-----xxx-7-7---|
                                                     (repeat both sections x4)
e|------------------------------------------|
A|------------------------------------------|
G|-----------4-4-2------0-------------7p0---|
D|-4-5-7-5--2------5-5555------9p0--------0-|
A|-5-5-5-3-3---------5555-5/10-----10-------|
E|-------------------3333-------------------| (this part changes fourth time)
                     ***                                                        


fourth time pre-chorus

e|---------------------------------------------------------|
A|---------------------------------------------------------|
G|-------------------4~-4-2--------------------------------|
D|-------4--5--7--5--2~-----5------5-5-5-5-5-5-5-5-5-5-5-5-|
A|-------5--5--5--3--3~------------5-5-5-5-5-5-5-5-5-5-5-5-|
E|---------------------------------3-3-3-3-3-3-3-3-3-3-3-3-|
                                   * * * * * * * * * * * *
Chorus
e|---------------------------------------------------------|
A|-9--9--10-12--12-12-10-9--9--9--9--9--10-10-10-10-12-----|
G|---------------------------------------------------------|
D|---------------------------------------------------------|
A|-9--9--10-12--12-12-10-9--9--9--9--9--10-10-10-10-12-----|
E|---------------------------------------------------------|

e|----------------------------------------------|
A|-9--9--10-12--12-12-10-9--9--9--9--9-4-4-4-4--|
G|----------------------------------------------|
D|----------------------------------------------|
A|-9--9--10-12--12-12-10-9--9--9--9--9-4-4-4-4--|
E|----------------------------------------------|

e|---------------------------------------------------------|
A|-9--9--10-12--12-12-10-9--9--9--9--9--10-10-10-10-12-----|
G|---------------------------------------------------------|
D|---------------------------------------------------------|
A|-9--9--10-12--12-12-10-9--9--9--9--9--10-10-10-10-12-----|
E|---------------------------------------------------------|

e|------------------------------------|
A|-9--9--10-10-4-4--------------------|
G|------------------4-----------------|
D|------------------3-----------------|
A|-9--9--10-10-4-4--2-(STRUMVERYFAST)-|
E|------------------------------------|

verse2

e|--------------------------------------------------|
A|--------------------------------------------------|
G|------------------------------------11------9-9---|
D|-------4--5--7--5------7p0------------------------|
A|-------5--5--5--7---7s9-----9---9-----------9-9---|
E|------------------------------7---7-----xxx-7-7---|

e|------------------------------------------|
A|------------------------------------------|
G|-----------4-4-2------0-------------7p0---|
D|-4-5-7-5--2------5-5555------9p0--------0-|
A|-5-5-5-3-3---------5555-5/10-----10-------|
E|-------------------3333-------------------|

e|--------------------------------------------------|
A|--------------------------------------------------|
G|------------------------------------11------9-9---|
D|-------4--5--7--5------7p0------------------------|
A|-------5--5--5--7---7s9-----9---9-----------9-9---|
E|------------------------------7---7-----xxx-7-7---|

e|------------------------------------------|
A|------------------------------------------|
G|-----------4-4-2------0-------------7p0---|
D|-4-5-7-5--2------5-5555------9p0--------0-|
A|-5-5-5-3-3---------5555-5/10-----10-------|
E|-------------------3333-------------------|

e|----------------------------|
A|-12-12-12-10-9-5--9-9-9-----|
G|----------------------------|
D|----------------------------|
A|-12-12-12-10-9-5--9-9-9-----|
E|----------------------------|

e|-------------------------------|
A|-12-12-12-10-9--5-7-7-7--------|
G|-------------------------------|
D|-------------------------------|
A|-12-12-12-10-9--5-7-7-7--------|
E|-------------------------------|

e|------------------------------------|
A|-12-12-12-10-9-5--9--9-9--9--9-9--7-|
G|------------------------------------|
D|------------------------------------|
A|-12-12-12-10-9-5--9--9-9--9--9-9--7-|
E|------------------------------------|

e|-------------------------------|
A|-12-12-12-10-9--5-7-7-7--------|
G|-------------------------------|
D|-------------------------------|
A|-12-12-12-10-9--5-7-7-7--------|
E|-------------------------------|

go back to the chorus

then:

(!IMPROVISED NOISE!)

then:
WALL OF CUDDLES

e|-----------------------------------------|
A|-------------5---2-2-----9-----5---------|
G|-----2p0---0---2-4-4--------------2------|
D|-2s4-----4-----0-0-0-----------------5-5-| add harmonic 2nd time
A|-------------------------------------3-3-|
E|---------------------7-7-7-3-3-3--2------|

e|-----------------------------------------------|
A|-------------5---2-2---------------------------|
G|-----2p0---0---2-4-4-----------------6-6-6-6-6-|
D|-2s4-----4-----0-0-0-5-5-5-5-5-5-5-5-7-7-7-7-7-| 
A|---------------------5-5-5-5-5-5-5-5-0-0-0-0-0-|
E|---------------------3-3-3-3-3-3-3-3-----------| REPEAT

e|--------| and just keep strumming this with pm till it changes
A|--------|
G|--------|
D|-9------| 
A|-9------|
E|-7------|

THEN 

e|-----------------------------------------| 
A|-----------------------------------------|
G|----------------------11----------9------|
D|-------------------9-----9--12-12----12--| 
A|-12-12-12-10-9---------------------------|
E|-7--7--7--7--7-x-x-7--7--7--7--7--7--7---|

e|-----------------------------------------| 
A|-----------------------------------------|
G|----------------------11-----------------|
D|-------------------9-----9-----12-12-12--| 
A|-12-12-12-10-9---------------------------|
E|-7--7--7--7--7-7-7-7--7--7--7--7--7--7---|

e|--------------------------------------------------------------------------------| 
A|------------------------------------------------------------9-9-9-9-10-10-10-10-|
G|--------------------------------------------------------------------------------|
D|----------9---------------------------------------------------------------------| 
A|-12-12-12----12-10-7-7-9-9--9-9-9-9-9-9-9-9-7-7-7-7-7-7-7-7-9-9-9-9-10-10-10-10-|
E|-7--7--7--7--7--7--0-0-0-0--7-7-7-7-7-7-7-7-0-0-0-0-0-0-0-0---------------------|

e|--------| and just keep strumming this with pm till it changes
A|--------|
G|--------|
D|-9------| 
A|-9------|
E|-7------|

e|-----------------------------------------| 
A|-----------------------------------------|
G|----------------------11----------9------|
D|-------------------9-----9--12-12----12--| 
A|-12-12-12-10-9---------------------------|
E|-7--7--7--7--7-x-x-7--7--7--7--7--7--7---|

e|-----------------------------------------| 
A|-----------------------------------------|
G|----------------------11-----------------|
D|-------------------9-----9-----12-12-12--| 
A|-12-12-12-10-9---------------------------|
E|-7--7--7--7--7-7-7-7--7--7--7--7--7--7---|

e|--------------------------------------------------------------------------------| 
A|------------------------------------------------------------9-9-9-9-10-10-10-10-|
G|--------------------------------------------------------------------------------|
D|----------9---------------------------------------------------------------------| 
A|-12-12-12----12-10-7-7-9-9--9-9-9-9-9-9-9-9-7-7-7-7-7-7-7-7-9-9-9-9-10-10-10-10-|
E|-7--7--7--7--7--7--0-0-0-0--7-7-7-7-7-7-7-7-0-0-0-0-0-0-0-0---------------------|

e|--------| and just keep strumming this with pm till it ends
A|--------|
G|--------|
D|-9------| 
A|-9------|
E|-7------|

It's still not 100% but i hope it helps
comments
We did not receive enough feedback on this tab! Please rate:
print report bad tab
1 2 3 4 5
3 comments total.
+1 reply
JjjDdd wrote on August 9 2013, 05:56 pm

hey man! this is great!
how did you manage to figure out the end parts???!!

just a quick correction on the main riff bit
i got it from a video david posted of himself playing it

e|------------------------------------------|
A|------------------------------------------|
G|--------------------------11-----9-9--9\--|
D|-4-5-7-5------7p0-------------------------|
A|-5-5-5-7--7/9-----9---9----------9-9--9\--|
E|--------------------7---7----xxx-7-7--7\--|

e|------------------------------------------|
A|------------------------------------------|
G|-----------4-4-2------0-------------7p0---|
D|-4-5-7-5--2------5-5555------9p0--------0-|
A|-5-5-5-3-3---------5555-5/10-----10-------|
E|-------------------3333-------------------|
***

+1 reply
JjjDdd wrote on August 9 2013, 06:20 pm

oops i messed up a little
e|------------------------------------------|
A|------------------------------------------|
G|--------------------------11-----9-9--9\--|
D|-4-5-7-5------7p0-------0-----------------|
A|-5-5-5-7--7/9-----9---9----------9-9--9\--|
E|--------------------7--------xxx-7-7--7\--|

+1 reply
fatgleeson wrote on July 13 2014, 08:59 am

This is really good, combined with listening closely and watching the guitarist's videos (his channel's name is 'queep') i managed to get most of the song down

I want to post or [tab]
guest
You may want to rate the tab now too:
select rating
Please do not post tabs as comments. Select "correction" instead!