Oops, an error
Loading. Please wait.

Murder Comes With Smiles tab

version 2
version 2

Whole song

2,509 views 1 this week
2 commentsread comments
1 2 3 4 5
x 6
add to favorites
×
Save as Personal and add changes to this tab that will be seen only by you. Learn more ›
×
You can save this tab as Personal to edit and correct it or add notes. All changes will be seen only by you. Learn more »
launch autoscroll
font size
0
reset
how to read this tab
guitar tuner
edit
Autoscroll
slow
fast
+/-
esc
set tempo
stop
A|---------------------------------|-------------|
B|---------1-1-1-1---------1-1-1-1-|             |
G|--------1-------1-------1-------1|             |
D|-3-3-3-3---------2-2-2-2---------|             |
A|---------------------------------|             |
D|---------------------------------|             |
  *  * * *** **  *** * * *** * * *
P.M  P.M  P.M  P.M  P.M  P.M  P.M              |---x2 second time distorted |and not palm muted
A|------------------------------------|         -- |
B|---------1-1-1-1---------1-1-1-3-5-6|         -- |
G|--------1-------1-------1-----------|         -- |
D|-3-3-3-3---------2-2-2-2------------|         -- |
A|------------------------------------|         -- |
D|------------------------------------|----------- |
   * * * *** * * *** * * *** * * * * *
P.M  P.M  P.M  P.M  P.M  P.M  P.M


A|------------------------------------------------|
B|------------------------------------------------|
G|------------------------------------------------|
D|------------------------------------------------|x6
A|-333333333---333333333---222222222---222222222--|
D|-333333333---333333333---222222222---222222222--|
   ********    ********    ********    ********

A|-------------------------------------------------|
B|-------------------------------------------------|
G|-------------------------------------------------|x3
D|-------------------------------------------------|
A|----------5-4---------5-4---------5-4---------5-8|
D|-0-0030-0----0-0030-0----0-0030-0----0-0030-0----|


A|---------------------------|
B|---------------------------|
G|---------------------------|
D|---------------------------|
A|---------------------------|
D|-000----000----000----000--|
   ***    ***    ***    ***

A|---------------------------------------|
B|---------------------------------------|
G|---------------------------------------|x2
D|---------------------------------------|
A|----------5-4---------5-4---------5-4--|
D|-0-0030-0----0-0030-0----0-0030-0------|

A|-----------------|
B|--------------6-5|
G|----------7-6----|x2
D|------8-7--------|
A|--8-7------------|
D|-----------------|

(I'm not sure if the next four parts are right)
A|-----------------------|
B|-----------------------|
G|----10101010--12-12-12-|x4
D|----9-9-9-9---11-11-11-|
A|----8-8-8-8---10-10-10-|
D|-----------------------|


A|-------------|
B|-------------|
G|--13-14-15-14|x4
D|--12-13-14-13|
A|--11-12-13-12|
D|-------------|


A|-----------------------|
B|-----------------------|
G|----10101010--12-12-12-|x4
D|----9-9-9-9---11-11-11-|
A|----8-8-8-8---10-10-10-|
D|-----------------------|


A|-------------|
B|-------------|
G|--13-14-15-14|x4
D|--12-13-14-13|
A|--11-12-13-12|
D|-------------|

(this part was hard as fuck to tab)
A|-------------------------------------------------------------------------|
B|-------------------------------------------------------------------------|
G|-------------------------------------------------------------------------|
D|-13-12---13-12-13---13-12---13-12-13-12---13---13-12-13-12---13-12-13-12-|
A|-12-11---12-11-12---12-11---12-11-12-11---12---12-11-12-11---12 11 12-11-|
D|-11-10---11-10-11---11-10---11-10-11-10---11---11-10-11-10---11-10-11-10-|


A|-------------------------------------------------------------------------|
B|-------------------------------------------------------------------------|
G|-------------------------------------------------------------------------|
D|-13-12---13-12-13---13-12---13-12-13-12---13---13-12-13-12---13-12-13-12-|
A|-12-11---12-11-12---12-11---12-11-12-11---12---12-11-12-11---12 11 12-11-|
D|-11-10---11-10-11---11-10---11-10-11-10---11---11-10-11-10---11-10-11-10-|

A|-----------------------------------------|
B|-----------------------------------------|
G|-----------------------------------------|
D|-13-12-13-12-13-12-13-12-13-12-13-12-13\-|
A|-12-11-12-11-12 11 12-11-12 11-12-11-12\-|
D|-11-10-11-10-11-10-11-10-11-10-11-10-11\-|


A|-------------------|
B|-------------------|
G|--------------7--6-|
D|-0000--3--000-7--6-|
A|-0000--3--000-5--4-|
D|-0000--3--000------|

A|---------------------|
B|---------------------|
G|--------------7--6-7-|
D|-0000--3--000-7--6-7-|
A|-0000--3--000-5--4-5-|
D|-0000--3--000--------|


A|-------------------|
B|-------------------|
G|--------------7--6-|
D|-0000--3--000-7--6-|
A|-0000--3--000-5--4-|
D|-0000--3--000------|

A|---------------------|
B|---------------------|
G|--------------7--6-7-|
D|-0000--3--000-7--6-7-|
A|-0000--3--000-5--4-5-|
D|-0000--3--000--------|


A|-------------------|
B|-------------------|
G|--------------7--6-|
D|-0000--3--000-7--6-|
A|-0000--3--000-5--4-|
D|-0000--3--000------|

A|---------------------|
B|---------------------|
G|--------------7--6-7-|
D|-0000--3--000-7--6-7-|
A|-0000--3--000-5--4-5-|
D|-0000--3--000--------|


A|-------------------|
B|-------------------|
G|--------------7--6-|
D|-0000--3--000-7--6-|
A|-0000--3--000-5--4-|
D|-0000--3--000------|

A|---------------------|
B|---------------------|
G|--------------7--6-7-|
D|-0000--3--000-7--6-7-|
A|-0000--3--000-5--4-5-|
D|-0000--3--000--------|


A|-------------------------------------------------|
B|-------------------------------------------------|
G|-------------------------------------------------|x2
D|-------------------------------------------------|
A|----------5-4---------5-4---------5-4---------5-4|
D|-0-0030-0----0-0030-0----0-0030-0----0-0030-0----|


A|-------------------------------------------------|
B|-------------------------------------------------|
G|-------------------------------------------------|
D|----------0-4---------0-4---------0-4--------0-4-|
A|-------------------------------------------------|
D|-0-0030-0----0-0030-0----0-0030-0----0-0030-0----|

A|-------------------------------------------------|
B|-------------------------------------------------|
G|-------------------------------------------------|
D|-------------------------------------------------|
A|----------5-4---------5-4---------5-4---------5-4|
D|-0-0030-0----0-0030-0----0-0030-0----0-0030-0----|


A|------------~~|
B|------------~~|
G|------------~~|
D|-3--2--3-2-0~~|
A|-3--2--3-2-0~~|
D|-3--2--3-2-0~~|


A|---------|---------------------|
B|---1---1-|                     |
G|--1-1-1-1|                     |
D|-3---3---|                     |
A|---------|                     |
D|---------|                     |
                                 | x8
A|---------|                     |
B|---1---1-|                     |
G|--1-1-1-1|                     |
D|-2---2---|                     |
A|---------|                     |
D|---------|---------------------|


A|---|
B|---|
G|---|
D|---|
A|---|
D|-3-|


--Clip of girl getting murdered--

A|--------------------|
B|--------------------|
G|--66666666-55555555-|
D|--77777777-66666666-|x5
A|--88888888-77777777-|
D|--------------------|

--End--(finaly)

            
            
Suggest correction
Creating personal tab
Creating personal tab
You can edit any tab online and save it as your Personal.

You can edit, replace or remove any tab part or add personal notes – all changes will be seen only by you.

Personal tabs can be accessed anytime from any device, even offline.
Learn more »
comments
print report bad tab
2 comments total.
0 reply
nirvana finatic 10 Jun 26, 2007 12:33 AM

few parts need adjusting, but for the most part nice tab

0 reply
metallica72487 103 May 12, 2008 09:02 AM

cool tab sounds good to me good job

guest
You may want to rate the tab now too:
select rating
Wanna post a correction for this tab? Suggest correction