Oops, an error
Loading. Please wait.

El Monstro Bass Tab

94 views 1 this week
no commentswrite comment
1 2 3 4 5
please rate
add to favorites
launch autoscroll
font size
0
reset
guitar tuner
Autoscroll
slow
fast
+/-
esc
set tempo
stop
Help us to improve Ultimate-Guitar.com Take our survey!
×
Author
Difficulty
This is my first ever tab and I did it entirely by ear. I think it's perfect but feel 
free to let me know if there's any imperfections! :D

Here is the band official website - http://danceforthedying.com/

~ = Slide
11 = Eleven (not "one one")

0:00-0:05
G|--------------------------------|
D|--------------------------------|
A|---9--9------12--12-------------|   x1
E|-7--7~~~~~10---10---333333333~~~|

0:05-0:30
G|-----------------------------------|
D|-----------------------------------|
A|-----------------------------------|  x4
E|-33-333-333-3335577-777-777-75522--|

0:30-0:36
G|----------------------------|
D|----------------------------|
A|---9--9------12--12---------|   x1
E|-7--7~~~~~10---10----3~~~~--|

0:36-1:13
G|-----------------------------------|
D|-----------------------------------|
A|-----------------------------------|   x6
E|-33-333-333-3335577-777-777-75522--|

1:13-1:36
G|----------------------------|
D|----------------------------|
A|---9--9------12--12---------|    x4
E|-7--7~~~~~10---10----3x12---|

1:37-1:49
G|------------------------------------|
D|------------------------------------|
A|------------------------------------|    x2
E|-33-333-333-3335577-777-777-75522---|

1:49-2:00
G|-----------------------------------------|
D|------5--------5----------9--------------|
A|-----------------------------------------|    x2
E|-33-3--3-3-3-3---355-77-7--7-7-7-75522---|

2:01-2:24
G|-----------------------------|
D|-----------------------------|
A|---9--9------12--12----------|    x4
E|-7--7~~~~~10---10----3x12----|

2:25-2:37
G|-------------------------11--11------------|
D|-555555555555-7777-99999---9----9997744----|
A|-------------------------------------------|   x1 (Play this first time)
E|-------------------------------------------|

G|-------7--7----------------11--11------------|
D|-55555--5--5555-7777-99999---9----9997744----|
A|---------------------------------------------|  x1 (Play this second time)
E|---------------------------------------------|

2:38-2:49
G|-------------------------------------|
D|-------------------------------------|
A|-------------------------------------|    x2
E|-33-333-3-3-3335577-777-7-7-75522----|

2:49-3:38
G|------------------------------|
D|------------------------------|
A|---9--9------12--12-----------|    x8
E|-7--7~~~~~10---10----3x12-----|

3:38-END
G|---------------------|
D|---------------------|
A|---------------------|
E|-33-333-333-33333----|
Suggest correction
Give kudos to tab author, rate the tab!
1 2 3 4 5
comments
print report bad tab
guest
You may want to rate the tab now too:
select rating
Please do not post tabs as comments. Select "correction" instead!