Oops, an error
Loading. Please wait.

Attack Of The Dashing Young And Bold bass

version 1
version 1

Whole song

Interactive

1,014 views 1 this week
1 commentread comment
1 2 3 4 5
x 3
add to favorites
×
Save as Personal and add changes to this tab that will be seen only by you. Learn more ›
×
You can save this tab as Personal to edit and correct it or add notes. All changes will be seen only by you. Learn more »
launch autoscroll
font size
0
reset
guitar tuner
edit
Autoscroll
slow
fast
+/-
esc
set tempo
stop
-------------------------------------------------------------------------------
	  Attack of the dashing young and bold - Dance Gavin Dance
-------------------------------------------------------------------------------

Tabbed By : Smokeysteve21
e-mail: dukes21_3@hotmail.com

Tuning: DADG

Tabbed out for fun. really great song love it. My 1st bass tab.

intro...

G|---------------------------------------------------------------------------|
D|---------------------------------------------------------------------------|
A|---33-33-33-33-33333---------------------------X4--------------------------|
D|---------------------55-55-55-55-52222-------------------------------------|

G|-------------------------|
D|-------------------------|
A|-------------------------|
D|----5~-------------------|

'And When you'

G|---------------------------------------------------|
D|--------------------------------------------------- 
A|------------3333333333333333--X2-------------------|   
D|-2~------------------------------------------------|


G|---------------------------------------------------|
D|---------------------------------------------------|
A|------------33-33-33-33--3333--X2------------------|
D|-2~------------------------------------------------|


G|---------------------------------------------------------------------------|
D|---------------------------------------------------------------------------|
A|--------------------------------3-3-------------x2-------------------------|
E|-2-2-2---2-2-2---5-5-5---5-5-5---------------------------------------------|

G|---------------------------------------------------------------------------|
D|---------------------------------------------------------------------------|
A|---------------------------------3-3-3-3-3-3---FIG PATTERN--X2------|
D|--5~---------------5-5-5-5-5-5---------------------------------------------|

G|---------------------------------------------------------------------------|
D|---------------------------------------------------------------------------|
A|------------------3-3-3-3-3-3-3--------------3-3-3-3-3-3-3---PATTERN IS EZ-|
D|---5-5-5-5-5-5-5----------------2-2-2-2-2-2--------------------------------|

'The path you chosen...'

G|---------------------------------------------------------------------------|
D|---------------------------------------------------------------------------|
A|------------------3-3-3-3-3-3-3--------------3-3-3-3-3-3-3-INTRO PATTERN|
D|---5-5-5-5-5-5-5----------------2-2-2-2-2-2--------------------------------|

'Its time to think of my different plan...'

G|---------------------------------------------------|
D|--------------------------------------------------- 
A|------------3333333333333333--X2-------------------|   
D|-2~------------------------------------------------|

G|---------------------------------------------------|
D|---------------------------------------------------|
A|------------33-33-33-33--3333--X2------------------|
D|-2~------------------------------------------------|

'You, you cant be..'

G|---------------------------------------------------------------------------|
D|---------------------------------------------------------------------------|
A|---------------------------------------------------------------------------|
D|-2-2-2--------2-2-2----5-5-5--2-2-2----2-2-2--5-5-5--2--2--2---------------|

So Girl Just fight it...

G|---------------------------------------------------------------------------|
D|---------------------------------------------------------------------------|
A|---------------------------------------------------------------------------|
D|-2-2-2--------2-2-2----2-2-2-----------2~----------------------------------|

G|---------------------------------------------------------------------------|
D|---------------------------------------------------------------------------|
A|---33-33-33-33-33333---------------------------X4--------------------------|
D|---------------------55-55-55-55-55555-------------------------------------|

'The Path you've chosen..'

G|---------------------------------------------------------------------------|
D|---------------------------------------------------------------------------|
A|------------------3-3-3-3-3-3-3--------------3-3-3-3-3-3-3---X1------------|
D|---5-5-5-5-5-5-5----------------2-2-2-2-2-2--------------------------------|


G|---------------------------------------------------------------------------|
D|---------------------------------------------------------------------------|
A|------------------3-3-3-3-3-3-3--------------3-3-3-3-3-3-3-INTRO PATTERN|
D|---5-5-5-5-5-5-5----------------2-2-2-2-2-2--------------------------------|

Solo'd Bass Part

G|---------------------------------------------------------------------------|
D|---------------------------------------------------------------------------|
A|-------------------------------3-3-3-----------------3-3-3-3-3-3-3-5-5-x2--|
D|---5-5-5-5-5-5-5-5-5-5-5-5-5-5-------2-2-2-2-2-2-2-2-----------------------|

Slight Different Pattern this time

G|---------------------------------------------------------------------------|
D|---------------------------------------------------------------------------|
A|-------------------------------3-3-3-----------------3-3-3-3-3-3-3-5-5-x2--| 
D|---5-5-5-5-5-5-5-5-5-5-5-5-5-5-------2-2-2-2-2-2-2-2-----------------------|

G|---------------------------------------------------------------------------|
D|---------------------------------------------------------------------------|
A|-------------------------333-333-33-333-333-33-x2--------------------------|
D|--2-2-2-2-2--2-2-2-2-2-----------------------------------------------------|

'Dont Roll your eyes...'

G|---------------------------------------------------------------------------|
D|---------------------------------------------------------------------------|
A|---33-33-33-33-33333---------------------------X4--------------------------|
D|---------------------55-55-55-55-52222-------------------------------------|

Outro....

G|---------------------------------------------------------------------------|
D|---------------------------------------------------------------------------|
A|---33-33-33-33-33333---------------------------X4--------------------------|
D|---------------------55-55-55-55-52222-------------------------------------|

G|---------------------------------------------------------------------------|
D|---------------------------------------------------------------------------|
A|---------------------------------------------------------------------------|
E|----2~---------------------------------------------------------------------|


***************************************
| /  slide up
| \  slide down
| h  hammer-on
| p  pull-off
| ~  vibrato
| +  harmonic
| x  Mute note
===============================================================================

            
            
Suggest correction
Creating personal tab
Creating personal tab
You can edit any tab online and save it as your Personal.

You can edit, replace or remove any tab part or add personal notes – all changes will be seen only by you.

Personal tabs can be accessed anytime from any device, even offline.
Learn more »
Give kudos to tab author, rate the tab!
1 2 3 4 5
comments
print report bad tab
1 comment total.
0 reply
Stereolove94 10 Jul 24, 2011 11:36 AM

The intro part seems to sound a little more like
G:----------------------------------------------
D:----------------------------------------------
A:-33-33-33-33-3333-----------------------------
D:------------------55-55-55-22-2222------------

Other than that, it's great.

guest
You may want to rate the tab now too:
select rating
Wanna post a correction for this tab? Suggest correction