Oops, an error
Loading. Please wait.

Awkward intro tab

version 2
version 2

Intro

3,784 views 33 this week
5 commentsread comments
1 2 3 4 5
x 6
add to favorites
×
Save as Personal and add changes to this tab that will be seen only by you. Learn more ›
×
You can save this tab as Personal to edit and correct it or add notes. All changes will be seen only by you. Learn more »
launch autoscroll
font size
0
reset
how to read this tab
guitar tuner
edit
Autoscroll
slow
fast
+/-
esc
set tempo
stop
-------------------------------------------------------------------------------
                             Awkward (Intro) - Dance Gavin Dance
-------------------------------------------------------------------------------
Tabbed by: PandaBear!
E-mail: nah

Tuning: Drop D

e|-------------------------------------------------------16--16--x--x--------|
B|--9-----9--5-----5-------9-9-x---5-5-5-------------------------x--x--------|
G|--------------------------------------------11-11-x-x----------x--x--------|
D|-----11-------7------------------------7----------x-x----------x--x--------|
A|--7--7--7--4--4--4-------7-7-7---4-4-4-4----------x-x--14--14--x--x--------|
D|--7--7--7--4--4--4-------7-7-7---4-4-4-4----9--9--x-x----------------------|

e|---------------------------------------------------------------------------|
B|--9-----9--5-----5-------9-9-x---5-5-5------12-12----9---9-9-9-------------|
G|--------------------------------------------x--x-----9---9-9-9-------------|
D|-----11-------7------------------------7----x--x-----x---x-x-x-------------|
A|--7--7--7--4--4--4-------7-7-7---4-4-4-4----9--9-----x---x-x-x-------------|
D|--7--7--7--4--4--4-------7-7-7---4-4-4-4----9--9-----9---9-9-9-------------|

e|-------------------------------------------------------16--16--x--x--------|
B|--9-----9--5-----5-------9-9-x---5-5-5-------------------------x--x--------|
G|--------------------------------------------11-11-x-x----------x--x--------|
D|-----11-------7------------------------7----------x-x----------x--x--------|
A|--7--7--7--4--4--4-------7-7-7---4-4-4-4----------x-x--14--14--x--x--------|
D|--7--7--7--4--4--4-------7-7-7---4-4-4-4----9--9--x-x----------------------|

e|---------------------------------------------------------------------------|
B|--9-----9--5-----5-------9-9-x---5-5-5------12----12-----------------------|
G|--------------------------------------------x-----x------------------------|
D|-----11-------7------------------------7----x-----x------------------------|
A|--7--7--7--4--4--4-------7-7-7---4-4-4-4----9-----9------------------------|
D|--7--7--7--4--4--4-------7-7-7---4-4-4-4----9-----9------------------------|


IT'S DEFINITELY NOT 100% SO PLEASE LEAVE YOUR SUGGESTIONS/IMPROVEMENTS IN THE COMMENTS 
SO I CAN UPDATE THE TAB!

also, here's the cool little riff in the breakdown for yah!

e|-16----16----11-12-11--------11--------|
B|----14------------------9-12----9------|
G|---------------------------------------|



************************************

| /   slide up
| \   slide down
| h   hammer-on
| p   pull-off
| ~   vibrato
| +   harmonic
| x   Mute note
| b   Bend
| pb  Pre-bend
| br  Bend release
| pbr Pre-bend release
| brb Bend release bend

************************************

            
            
Suggest correction
Creating personal tab
Creating personal tab
You can edit any tab online and save it as your Personal.

You can edit, replace or remove any tab part or add personal notes – all changes will be seen only by you.

Personal tabs can be accessed anytime from any device, even offline.
Learn more »
comments
print report bad tab
5 comments total. Showing first comments.
0 reply
vppark2 1,820 Jun 14, 2015 12:58 AM

So the G and D string are dead notes most of the time? Just making sure since theyre left blank.

+2 reply
joshtsavo 10 Jun 23, 2015 06:47 AM

I learned this song in Dropped D flat. When doing the breakdown part the muted open notes are D Flat.

I wonder what that does to the rest of it?

0 reply
leagueofkilljo 10 Jan 24, 2017 09:35 PM

I feel like it sounds more like the song if you play 9-10-9-5 on the B string instead of that 11 on the D string..for me its a lot easier?...

guest
You may want to rate the tab now too:
select rating
Wanna post a correction for this tab? Suggest correction