Oops, an error
Loading. Please wait.

Carve tab

version 1
version 1

Whole song

Interactive

202 views 9 this week
no commentswrite comment
1 2 3 4 5
1 last vote to show rating
add to favorites
×
Save as Personal and add changes to this tab that will be seen only by you. Learn more ›
×
You can save this tab as Personal to edit and correct it or add notes. All changes will be seen only by you. Learn more »
launch autoscroll
font size
0
reset
how to read this tab
guitar tuner
edit
Autoscroll
slow
fast
+/-
esc
set tempo
stop
[Carve]
[Acceptance Speech]
[Dance Gavin Dance]

Tuning: Db Ab Db Gb Bb Eb
Playthrough: https://www.youtube.com/watch?v=U2RCaKvnwX0

[Riff 1a] - [00:00] - [00:22] - [x4]
   T           T     T     T     T     T           T     T     T     T     T           T     T
- -------------------------------------------------------------------------------------------------
- -------------------------------------------------------------------------------------------------
- -19p10h12h14-------15p10-14p10-17p10-19p10h12h14-------15p10-14p10-17p10-19p10h12h14-------15p10-
- -------------15p12-------------------------------15p12-------------------------------15p12-------
- -------------------------------------------------------------------------------------------------
- -------------------------------------------------------------------------------------------------
   T     T                             T     T
- -------------------------------------------------------------------------------------------------
- -15p13-------------10h13p10----------15p13-------------10h13p10----------------------------------
- -------14p12-10h12-------------------------14p12-10h12-------------------------------------------
- -------------------------------------------------------------------------12----12-12-12----------
- -------------------------------------------------------------------------------------------------
- -------------------------------------------------------------------------------------------------

[Riff 1b] - [00:00] - [00:22] - [x4]
- -----------------------------------------------------------------
- -----------------------------------------------------------------
- -----------------------------------------------------------------
- ---------------------------------3-3-3-3-3-3-3-3-2-2-2-2-2-2-2-2-
- -5-5-5-5-5-5-5-5-5-5-5-5-5-5-5-5-x-x-x-x-x-x-x-x-x-x-x-x-x-x-x-x-
- -0-0-0-0-0-0-0-0-0-0-0-0-0-0-0-0-3-3-3-3-3-3-3-3-2-2-2-2-2-2-2-2-

[Riff 2a] - [00:22] - [00:31] - [x4]
- -------------------------------------------------------------------------
- -------------------------------------------------------------------------
- -19p10h12h14-------15p10-14p10-17p10-19p10h12h14-------15p10-14p10-17p10-
- -------------17p12-------------------------------17p12-------------------
- -------------------------------------------------------------------------
- -------------------------------------------------------------------------

[Riff 2b] - [00:22] - [00:31] - [x4]
- -------------------------
- -------------------------
- -------------------------
- -------------------------
- -5-5-5-5-5-5-5-5-5-5-5-5-
- -0-0-0-0-0-0-0-0-0-0-0-0-


[Riff 3, Guitar 1 & 2] - [00:31] - [00:54]
- -----------------------------------------------------------------
- -----------------------------------------------------------------
- -----------------------------------------------------------------
- -----------------------------------------------------------------
- -000000000-----------------------000000000-----------------------
- -000000000-----------------------000000000-----------------------
PM ...............................................................
- -----------------------------------------------------------------
- ---------13------11------11--------------13------11------11------
- ---------14--14--14b-----14--------------14--14--14b-----14------
- -------------x-------------------------------x-------------------
- -------------12------------------------------12------------------
- -----------------------------------------------------------------


- -----------------------------------------------------------------
- -----------------------------------------------------------------
- -----------------------------------------------------------------
- -----------------------------------------------------------------
- -000000000-----------------------000000000-----000--0--0---------
- -000000000-----------------------000000000-----000--0--0---------
PM ...............................................................
- -----------------------------------------------------------------
- ---------13------11------11--------------13------11------11------
- ---------14--14--14b-----14--------------14--14--14b-----14------
- -------------x-------------------------------x-------------------
- -------------12------------------------------12------------------
- -----------------------------------------------------------------


- -----------------------------------------------------------------
- -----------------------------------------------------------------
- -----------------------------------------------------------------
- -----------------------------------------------------------------
- -000000000-----000--0--0---------000000000-----000--0--0---------
- -000000000-----000--0--0---------000000000-----000--0--0---------
PM ...............................................................
- -----------------------------------------------------------------
- ---------13------11------11--------------13------11------11------
- ---------14--14--14b-----14--------------14--14--14b-----14------
- -------------x-------------------------------x-------------------
- -------------12------------------------------12------------------
- -----------------------------------------------------------------


- -----------------------------------------------------------------
- -----------------------------------------------------------------
- -----------------------------------------------------------------
- -------------------------------------------------------------3/--
- -000000000-----000--0--0---------000000000-----000--0--0-----3/--
- -000000000-----000--0--0---------000000000-----000--0--0-----3/--
PM .......................................................
- -----------------------------------------------------------------
- ---------13------11------11--------------13------11------11------
- ---------14--14--14b-----14--------------14--14--14b-----14------
- -------------x-------------------------------x-------------------
- -------------12------------------------------12------------------
- -----------------------------------------------------------------


[Riff 4, Guitar 1 & 2] - [00:54] - [01:09]
- -----------------------------------------------------------------------------------------
- ----------13b------------------------------------10h11p10h11p10h11p10--------------------
- ---------------------------12b----12p10----------------------------------------12b-12-10-
- -12-12-12---------12-12-12--------------11-11-11----------------------11-11-11-----------
- -8--8--8----------8--8--8---------------7--7--7-----------------------7--7--7------------
- -8--8--8----------8--8--8---------------7--7--7-----------------------7--7--7------------
-
- -13-------------------------------------12-----------------------------------------------
- ----------------------------------------------------------------------14-----------------
- -----------------------------------------------------------------------------------------
- -----------------------------------------------------------------------------------------
- -----------------------------------------------------------------------------------------
- -----------------------------------------------------------------------------------------
AP .......................................................................................


- -----------------------------------------------------------------------------------------
- ----------13b------------------------------------10h11p10h11p10h11p10--------------------
- ---------------------------12b----12p10----------------------------------------12b-12-10-
- -12-12-12---------12-12-12--------------11-11-11----------------------11-11-11-----------
- -8--8--8----------8--8--8---------------7--7--7-----------------------7--7--7------------
- -8--8--8----------8--8--8---------------7--7--7-----------------------7--7--7------------
-
- -13-------------------------------------12-----------------------------------------------
- ----------------------------------------------------------------------14-----------------
- -----------------------------------------------------------------------------------------
- -----------------------------------------------------------------------------------------
- -----------------------------------------------------------------------------------------
- -----------------------------------------------------------------------------------------
AP .......................................................................................


- -------------------------------------
- ------------6--8---------------------
- ---------7-------7/9--7/9--7/9--7--5-
- -5--5--5-----------------------------
- -5--5--5-----------------------------
- -5--5--5-----------------------------
-
- --------------------------------------------------
- ----------10-11-10-10h11p10----10-----------------
- ----10-12-------------------12------12/14--12--10-
- -12-----------------------------------------------
- --------------------------------------------------
- --------------------------------------------------


[Riff 5, Guitar 1 & 2] - [01:09] - [01:14]
- -------------------------------12-12-12---12---12--12-12-12-12-12-12-12-----------------17-17---17-17---
- -------------------------------x--x--x----x----x---x--x--x--x--x--x--x------------------x--x----x--x----
- -9-9-9-9-9-9-9-----------------10-10-10---10---10--10-10-10-10-10-10-10-----------------15-15---15-15---
- -x-x-x-x-x-x-x------------------------------------------------------------------------------------------
- -8-8-8-8-8-8-8------------------------------------------------------------------------------------------
- --------------------------------------------------------------------------------------------------------
-
- --------------------------------------------------------------------------------------------------------
- --------------------------------------------------------------------------------------------------------
- --------------------------------------------------------------------------------------------------------
- --------------------------------------------------------------------------------------------------------
- -8-8-8-8-8-8-8-----------------8--8--8----8----8---8--8--8--8--8--8--8------------------8--8----8--8----
- -8-8-8-8-8-8-8-----------------8--8--8----8----8---8--8--8--8--8--8--8------------------8--8----8--8----
PM ......................................................................................................


[Riff 6, Guitar 1 & 2] - [01:14] - [01:38] - [x2]
- -----------------------------------------------8--5-
- ----------------------------------------5-5-5--5--5-
- ----------------------------------------5-5-5--7--7-
- -12-12-12-12-12-12-12-12-12\------------7-7-7-------
- -8--8--8--8--8--8--8--8--8-\------------------------
- -8--8--8--8--8--8--8--8--8-\------------------------
-
- --------------------------------------------------5-
- -----------------------------------------------5--x-
- -9--9--9--9--9--9--9--9--9-\------------6-6-6--x--3-
- -x--x--x--x--x--x--x--x--x-\------------x-x-x--3----
- -8--8--8--8--8--8--8--8--8-\------------5-5-5-------
- ----------------------------------------------------


- ------------------------------------------xx8---5---
- ------------------------------------------xx5---5---
- ------------------------------------------xx7---7---
- -12-12-12-12-12-12-12-12-12\------------------------
- -8--8--8--8--8--8--8--8--8-\------------------------
- -8--8--8--8--8--8--8--8--8-\------------------------
-
- ------------------------------------------xx8---5---
- ------------------------------------------xx5---5---
- -9--9--9--9--9--9--9--9--9-\--------------xx7---7---
- -x--x--x--x--x--x--x--x--x-\------------------------
- -8--8--8--8--8--8--8--8--8-\------------------------
- ----------------------------------------------------


- -----------------------------------------------8--5-
- ----------------------------------------5-5-5--5--5-
- ----------------------------------------5-5-5--7--7-
- -12-12-12-12-12-12-12-12-12\------------7-7-7-------
- -8--8--8--8--8--8--8--8--8-\------------------------
- -8--8--8--8--8--8--8--8--8-\------------------------
-
- --------------------------------------------------5-
- -----------------------------------------------5--x-
- -9--9--9--9--9--9--9--9--9-\------------6-6-6--x--3-
- -x--x--x--x--x--x--x--x--x-\------------x-x-x--3----
- -8--8--8--8--8--8--8--8--8-\------------5-5-5-------
- ----------------------------------------------------


- ----------------------------------------xxxx8-8-8-8-12-12-12-12-
- ----------------------------------------xxxx8-8-8-8-8--8--8--8--
- ----------------------------------------xxxx9-9-9-9-9--9--9--9--
- -12-12-12-12-12-12-12-12-12\------------------------------------
- -8--8--8--8--8--8--8--8--8-\------------------------------------
- -8--8--8--8--8--8--8--8--8-\------------------------------------
-
- ----------------------------------------xxxx8-8-8-8-12-12-12-12-
- ----------------------------------------xxxx8-8-8-8-8--8--8--8--
- -9--9--9--9--9--9--9--9--9-\------------xxxx9-9-9-9-9--9--9--9--
- -x--x--x--x--x--x--x--x--x-\------------------------------------
- -8--8--8--8--8--8--8--8--8-\------------------------------------
- ----------------------------------------------------------------


[Riff 7, Guitar 1 & 2] - [01:38] - [01:51]
- ------------10---------------------------------------------------------------------
- -----11---------11---------13--15-13-----------------------------------------------
- -12------12---------12/14------------------------14-----12------14-----------------
- --------------------------------------15--14-15------15-----15---------------------
- -------------------------------------------------------------------00000---00000---
- -------------------------------------------------------------------00000---00000---
PM                                                                   .............
- -5----------10---------5----------8----------5----------5--------------------------
- -6----------10---------6----------10---------6----------6--------------------------
- -7----------10---------7----------9----------7----------5--------------------------
- -8----------12---------8----------7----------8----------8--------------------------
- -------------------------------------------------------------------00000---00000---
- -------------------------------------------------------------------00000---00000---
PM                                                                   .............


- ------------10-----------------------------------------------------------------------------
- -----11---------11---------13--15-13-------------------------------------------------------
- -12------12---------12/14------------------------14-----12------14-------------------------
- --------------------------------------15--14-15------15-----15-----------------------------
- -------------------------------------------------------------------00000---00000---00000---
- -------------------------------------------------------------------00000---00000---00000---
PM                                                                   .....................
- -5----------10---------5----------8----------5----------5----------------------------------
- -6----------10---------6----------10---------6----------6----------------------------------
- -7----------10---------7----------9----------7----------5----------------------------------
- -8----------12---------8----------7----------8----------8----------------------------------
- -------------------------------------------------------------------00000---00000---00000---
- -------------------------------------------------------------------00000---00000---00000---
PM                                                                   .....................


[Riff 3, Guitar 1 * 2] - [01:51] - [02:15]

[Riff 8, Guitar 1 * 2] - [02:15] - [02:48]
- -----------------------------------------------------------------------------------------
- ----------13b------------------------------------10h11p10h11p10h11p10--------------------
- ---------------------------12b----12p10----------------------------------------12b-12-10-
- -12-12-12---------12-12-12--------------11-11-11----------------------11-11-11-----------
- -8--8--8----------8--8--8---------------7--7--7-----------------------7--7--7------------
- -8--8--8----------8--8--8---------------7--7--7-----------------------7--7--7------------
-
- -13-------------------------------------12-----------------------------------------------
- ----------------------------------------------------------------------14-----------------
- -----------------------------------------------------------------------------------------
- -----------------------------------------------------------------------------------------
- -----------------------------------------------------------------------------------------
- -----------------------------------------------------------------------------------------
AP .......................................................................................


- -----------------------------------------------------------------------------------------
- ----------13b------------------------------------10h11p10h11p10h11p10--------------------
- ---------------------------12b----12p10----------------------------------------12b-12-10-
- -12-12-12---------12-12-12--------------11-11-11----------------------11-11-11-----------
- -8--8--8----------8--8--8---------------7--7--7-----------------------7--7--7------------
- -8--8--8----------8--8--8---------------7--7--7-----------------------7--7--7------------
-
- -13-------------------------------------12-----------------------------------------------
- ----------------------------------------------------------------------14-----------------
- -----------------------------------------------------------------------------------------
- -----------------------------------------------------------------------------------------
- -----------------------------------------------------------------------------------------
- -----------------------------------------------------------------------------------------
AP .......................................................................................


- -----------------------------------------------------
- ------------6--8---------------------5---------------
- ---------7-------7/9--7/9--7/9--7--5-----------------
- -5--5--5---------------------------------------------
- -5--5--5---------------------------------------------
- -5--5--5---------------------------------------------
-
- ------------------------------------------------------------------
- ----------10-11-10-10h11p10----10-----------------10--------------
- ----10-12-------------------12------12/14--12--10-----------------
- -12---------------------------------------------------------------
- ------------------------------------------------------------------
- ------------------------------------------------------------------

a third guitar plays this on the last note as well

- ----------------
- ----------------
- ----------------
- -7--------------
- -3--------------
- -3--------------

[Symbols]

PM... Palm Mute notes with (...) under them
AP... Alternate Pick notes with (...) under them
h     Hammer On
p     Pull Off
[ ]   Harmonic
/     Slide Up
\     Slide Down
x     Dead Note
b     Bend
hb    Hold Bend
p     Pre-Bend
r     Release Bend
(x )  Play Notes x amount of times
~     Let Ring
\\\   Pick Slide Down
/ 3 \ Notes are triplets (3 notes in the space of two)
w\    Whammy Bar Down
w/    Whammy Bar Up
T     Right Hand Tap

:)

            
            
Suggest correction
Creating personal tab
Creating personal tab
You can edit any tab online and save it as your Personal.

You can edit, replace or remove any tab part or add personal notes – all changes will be seen only by you.

Personal tabs can be accessed anytime from any device, even offline.
Learn more »
Give kudos to tab author, rate the tab!
1 2 3 4 5
comments
print report bad tab
guest
You may want to rate the tab now too:
select rating
Wanna post a correction for this tab? Suggest correction