Oops, an error
Loading. Please wait.

Chocolate Jackalope Tab

256 views 54 this week
no commentswrite comment
1 2 3 4 5
x 3
add to favorites
launch autoscroll
font size
0
reset
how to read this tab
guitar tuner
Autoscroll
slow
fast
+/-
esc
set tempo
stop
Help us to improve Ultimate-Guitar.com Take our survey!
×
Author
Difficulty
advanced
Much credit to Mikerisms, for he is the master of all things DGD.
     
    t         t         t         t         t        t        t         t
E|-----------------------------------------|----------------------------------------|
B|--11p8p4h8-------------------------------|----------------------------------------|
G|------------10p7p3h7---------------------|--8p3p0h3--8p3p0h3--10p5p2h5--10p5p2h5--|
D|----------------------10p7p3h7--10p7p3h7-|----------------------------------------|
A|-----------------------------------------|----------------------------------------|
E|-----------------------------------------|----------------------------------------|x4
    
On the 4th playthrough, instead of playing the 10p5p2h5, stop on first 10 and hold the note


E|--------------------|-------------------|-------------------|-----------------------|
B|--------------------|-------------------|-------------------|--10-6-10-6-10-11-10-6-|
G|-7-10------8-7------|-7-10------8-7-----|-7-3-7-3-10-7-10-7-|-----------------------|
D|------8-10-----8-7--|------8-10-----8-7-|-------------------|-----------------------|
A|--------------------|-------------------|-------------------|-----------------------|
E|--------------------|-------------------|-------------------|-----------------------|x2

Each note is played twice

E|--3-|-3--1-|-3-|-6--5--|
B|--4-|-3--1-|-4-|-6--6--|
G|--3-|-4--2-|-3-|-7--5--|
D|--5-|-5--3-|-5-|-8--7--|
A|--6-|-5--3-|-6-|-8--8--|
E|--3-|-3--1-|-3-|-6--5--|


    t         t         t         t         t        t        t         t
E|-----------------------------------------|----------------------------------------|
B|--11p8p4h8-------------------------------|----------------------------------------|
G|------------10p7p3h7---------------------|--8p3p0h3--8p3p0h3--10p5p2h5--10p5p2h5--|
D|----------------------10p7p3h7--10p7p3h7-|----------------------------------------|
A|-----------------------------------------|----------------------------------------|
E|-----------------------------------------|----------------------------------------|x4

Same as intro


E|--------------------|-------------------|-------------------|-----------------------|
B|--------------------|-------------------|-------------------|--10-6-10-6-10-11-10-6-|
G|-7-10------8-7------|-7-10------8-7-----|-7-3-7-3-10-7-10-7-|-----------------------|
D|------8-10-----8-7--|------8-10-----8-7-|-------------------|-----------------------|
A|--------------------|-------------------|-------------------|-----------------------|
E|--------------------|-------------------|-------------------|-----------------------|x2
Each note is played twice


E|--3-|-3--1-|-3-|-6--5---------------------------|
B|--4-|-3--1-|-4-|-6--6----6--15~~--8--11-~-6--8--|
G|--3-|-4--2-|-3-|-7--5----7---x----7--x----7--7--|
D|--5-|-5--3-|-5-|-8--7----0--12~~--8--8~---0--8--|
A|--6-|-5--3-|-6-|-8--8----x--------6-------x--6--|
E|--3-|-3--1-|-3-|-6--5----6----------------6-----|


E|------13------13---11-10--------|------13------13-------|------13------13---11-10-------|-10-8--|
B|-------------------------13-11--|-------------------13--|-------------------------13-11-|-11-10-|
G|-12-x----12-x-------------------|-10-x----10-x----------|-12-x----12-x------------------|-10-10-|
D|--------------------------------|-----------------------|-------------------------------|-12-10-|
A|--------------------------------|-----------------------|-------------------------------|-10-8--|
E|--------------------------------|-----------------------|-------------------------------|-10-8--|x4

(rhythm guitar while that's going)
E|---------------------------------------|
B|---------------------------------------|
G|---------------------------------------|
D|---------------------------------------|
A|---1-3-----1-3/5-3-------1-3-----1-3/5-|
E|-3-------3---------1---3-------3-------|


E|---------------|----------------------------------------------|
B|---------------|---------11h13h15p13p11-----------------------|
G|-0-10h12-------|-0-12-14----------------14-0-10h12-------10---|
D|---------10h12-|-----------------------------------10h12------|
A|---------------|----------------------------------------------|
E|---------------|----------------------------------------------|x10


E|---------------|---------------|---------------|-------------------------|
B|---------------|---------------|---------------|-------------------------|
G|-5-5-5-------5-|---------------|-3-3-3-------3-|-------------------------|
D|-5-5-5-------5-|---------------|-3-3-3-------3-|-------------------------|
A|-3-3-3-3-3-3-3-|-----------3p1-|-1-1-1-1-1-1-1-|-----------1-1-1-1-3h5p3-|
E|---------------|-1-1-1-1h3-----|---------------|-1-3-3-3-3---------------|x4
         * * *                           * * *       * * * * * * * *


E|-1-1-1-3-3-1-1-3-1-|
B|-4-1-3-3-4-1-3-3-4-|
G|-3-3-2-3-5-3-3-3-3-|
D|-1-3-3-5-5-3-3-5-1-|
A|-3-x-1-5-3-x-1-5-3-|
E|---1---3---1---3---|

Fin.


Key
----
t = tap
* = palm mute
~ = vibrato
h = hammer on
p = pull off
/ = slide
x = muted



Suggest correction
Give kudos to tab author, rate the tab!
1 2 3 4 5
comments
print report bad tab
guest
You may want to rate the tab now too:
select rating
Wanna post a correction for this tab? Suggest correction