Oops, an error
Loading. Please wait.

Death Of A Strawberry intro tab

version 1
version 1

Intro

Whole song

1,582 views 57 this week
no commentswrite comment
1 2 3 4 5
1 last vote to show rating
add to favorites
×
Save as Personal and add changes to this tab that will be seen only by you. Learn more ›
×
You can save this tab as Personal to edit and correct it or add notes. All changes will be seen only by you. Learn more »
launch autoscroll
font size
0
reset
how to read this tab
guitar tuner
edit
Autoscroll
slow
fast
+/-
esc
set tempo
stop
Author
Difficulty
Tabbed by: Joshua Garcia (joshuag523@aol.com)

Tabs for the Intro to: Death of a Strawberry by Dance Gavin Dance
Please rate and let me know if you have any corrections. Thank you.


Posting this because none of the other tabs have the intro right. It was tabbed in help with these videos:
Lead (notice the positions of his fingers) - https://www.youtube.com/watch?v=JdGVtSg9M_w
Rhythn (covered by Martin Bianchini of Secret Band) - https://www.youtube.com/watch?v=g7iJo-_HfPQ


Tuning: Standard (E A D G B E)


[Intro]
Guitar 1:
E||-----------------------------------------------------------|
B||--4~---4-4-4-4-4-------------------------------------------|
G||--4~---4-4-4-4-4---------11---11-11---11-11-11-11-11---13--|
D||--6~---6-6-6-6-6----9----13---13-13---13-13-13-13-13---x---|
A||--7~---7-7-7-7-7----0----x----x--x----x--x--x--x--x----11--|
E||-------------------------9----9--9----9--9--9--9--9--------|


E||-------------------------------------------------------------------------------|
B||--4~---4-4~---4-4-4-4-4--------------------------------------------------------|
G||--4~---4-4~---4-4-4-4-4---------11---11-11---11---11-11---11-11---11-11-11-11--|
D||--6~---6-6~---6-6-6-6-6----9----13---13-13---13---13-13---13-13---13-13-13-13--| [x4]
A||--7~---7-7~---7-7-7-7-7----0----x----x--x----x----x--x----x--x----x--x--x--x---|
E||--------------------------------9----9--9----9----9--9----9--9----9--9--9--9---|


Guitar 2:
E||---------------------------------------------11-7------------|
B||--5~---5------4-5-4-------------------------------9------12--|
G||--4~---4--4-6-------6----11---11---11-11-11---------9/13-----|
D||--2~---2-----------------9----9----9--9--9-------------------|
A||--2~---2-----------------7----7----7--7--7-------------------|
E||--0~---0-----------------------------------------------------|


E||--14~----14--14--14--14----11----12~----12-12-12-12-12-12~\--|
B||--12~----12--12--12--12----12----12~----12-12-12-12-12-12~\--|
G||--13~----13--13--13--13----13----13~----13-13-13-13-13-13~\--|
D||-------------------------------------------------------------| [x2]
A||-------------------------------------------------------------|
E||-------------------------------------------------------------|




Tablature Legend
----------------
 h   hammer-on
 p   pull-off
 b   bend
 pb  pre-bend
 r   release bend
 ~   hold / vibrato
 .   palm mute
 /   slide up
 \   slide down
 *   pinch harmonic
 '   natural harmonic
 x   mute note
 T   tap

            
            
Suggest correction
Creating personal tab
Creating personal tab
You can edit any tab online and save it as your Personal.

You can edit, replace or remove any tab part or add personal notes – all changes will be seen only by you.

Personal tabs can be accessed anytime from any device, even offline.
Learn more »
Give kudos to tab author, rate the tab!
1 2 3 4 5
comments
print report bad tab
guest
You may want to rate the tab now too:
select rating
Wanna post a correction for this tab? Suggest correction