Oops, an error
Loading. Please wait.

Here Comes The Winner Tab

130 views 24 this week
no commentswrite comment
1 2 3 4 5
2 more votes to show rating
add to favorites
launch autoscroll
font size
0
reset
how to read this tab
guitar tuner
Autoscroll
slow
fast
+/-
esc
set tempo
stop
Help us to improve Ultimate-Guitar.com Take our survey!
×
Author
Difficulty
intermediate
About this tab version
No hay tabs de esta cancion. Was this info helpful? Yes No
[Intro]

e|-----------------------5-5--5-5----12--12-15-------------------------------|
B|---7-7--7h8-7-------8--------------12--12-12-------------------------------|
G|---7-7--7---7-------7--6-6--6-6----12--12-12-------------------------------|
D|----------------------------7-7----12--12-12-------------------------------|
A|---7-7--7---7--5-7--7--7-7--7-7--------------------------------------------|
E|---------------------------------------------------------------------------|


e|-----------------------5-5--5-5----12--15-14-12----------------------------|
B|---7-7--7h8-7-------8--------------12--12-12-12----------------------------|
G|---7-7--7---7-------7--6-6--6-6----12--12-12-12----------------------------|
D|----------------------------7-7----12--12-12-12----------------------------|
A|---7-7--7---7--5-7--7--7-7--7-7--------------------------------------------|
E|---------------------------------------------------------------------------|


************************************

| h   Hammer-on

************************************
Suggest correction
Give kudos to tab author, rate the tab!
1 2 3 4 5
comments
print report bad tab
guest
You may want to rate the tab now too:
select rating
Wanna post a correction for this tab? Suggest correction