Oops, an error
Loading. Please wait.

Jesus H Macy tab

version 2
version 2

Whole song

Interactive

331 views 1 this week
no commentswrite comment
1 2 3 4 5
x 3
add to favorites
×
Save as Personal and add changes to this tab that will be seen only by you. Learn more ›
×
You can save this tab as Personal to edit and correct it or add notes. All changes will be seen only by you. Learn more »
launch autoscroll
font size
0
reset
how to read this tab
guitar tuner
edit
Autoscroll
slow
fast
+/-
esc
set tempo
stop
Author
Difficulty
-------------------------------------------------------------------------------
                             JESUS H. MACY - Dance Gavin Dance
-------------------------------------------------------------------------------
Tabbed by: PandaBear!
E-mail: nah

Tuning: Standard

Intro 

Guitar 1 (Digitech Whammy Pedal)

e|---------------------------------------------------------------------------|
B|----------------------------------------6-8---------6-8--------------------|
G|----------7------------7--------------7-----------7------------------------|
D|--------5---5--------5---5------5---5-------5---5--------------------------|
A|--6---6--------6---6-------------------------------------------------------|
E|---------------------------------------------------------------------------|

e|---------------------------------------------------------------------------|
B|-----------------------------------------6-8-----------6-8-----------------|
G|----------7------------7---------------------------------------------------|
D|--------5---5--------5---5-------------5------------5----------------------|
A|--5---5--------5---5------------6---6---------6---6------------------------|
E|---------------------------------------------------------------------------|


Guitar 2 (Possibly an octave effect)

e|---------------------------------------------------------------------------|
B|-------6-8-6-------6-8-6---------------------------------------------------|
G|--8--8-------8---8------------7br--7--------7br--7-------------------------|
D|-------------------------------------8-10----------8-10--------------------|
A|---------------------------------------------------------------------------|
E|---------------------------------------------------------------------------|

                              (tremolo more 0's, I couldn't fit them all in!)
e|---------------------------------------------------------------------------|
B|---------------------------------------------------------------------------|
G|---------------------------------------------------------------------------|
D|-8-8-8-8-8-8-8-7-7-7-7-7-7-7-5-5-5-5-5-5-5-7-7-7-7-7-7-0-0-0-0-0-0-0-0-0-0-|
A|---------------------------------------------------------------------------|
E|---------------------------------------------------------------------------|

e|---------------------------------------------------------------------------|
B|-------6-8-6-------6-8-6---------------------------------------------------|
G|--8--8-------8---8------------7br--7--------7br--7-------------------------|
D|-------------------------------------8-10----------8-10--------------------|
A|---------------------------------------------------------------------------|
E|---------------------------------------------------------------------------|

                               (tremolo more 7's, I couldn't fit them all in!)
e|---------------------------------------------------------------------------|
B|---------------------------------------------------------------------------|
G|-7-7-7-7-7-7-5-5-5-5-5-5-5-10-10-10-10-10-10-5-5-5-5-5-5-7-7-7-7-7-7-7-7-7-|
D|---------------------------------------------------------------------------|
A|---------------------------------------------------------------------------|
E|---------------------------------------------------------------------------|

VERSE (section 1)

Guitar 1 (still with Digitech) - repeat x2

e|----------13------15------17----------------15-----------------------------|
B|--15--13-----13-------15------18---15----18-----15--16--18-16-15----15-16--|
G|--------------------------------------17-------------------------17--------|
D|---------------------------------------------------------------------------|
A|---------------------------------------------------------------------------|
E|---------------------------------------------------------------------------|

Guitar 2 (no effect) - repeat x2

e|-------------5--6----------------------------(5)-----------(10)------------|
B|-6-8-6-8-6-8-------6-8-6-8-6-8------------6-------------8-------8----------|
G|-------------------------------7--5----7---------7---8---------------------|
D|---------------------------------------------------------------------------|
A|---------------------------------------------------------------------------|
E|---------------------------------------------------------------------------|

VERSE (section 2)

Guitar 1 (I personally keep the Digitech on at this part, but i think Will 
turns it off & plays it 1 octave up from what's below)

e|---------------------------------------------------------------------------|
B|---------------------------------------------------------------------------|
G|--7-x-x-x--5-x-x-x--7-x-x-x--5-x-x-x--7-x-x-x--5-x-x-x--7-x-x-x--5-x-x-x---|
D|---------------------------------------------------------------------------|
A|---------------------------------------------------------------------------|
E|---------------------------------------------------------------------------|

e|---------------------------------------------------------------------------|
B|---------------------------------------------------------------------------|
G|--7-x-x-x--5-x-x-x--7-x-x-x----------------7br-----------------------------|
D|----------------------------------------5----------------------------------|
A|----------------------------6-x-x-x--6-------------------------------------|
E|---------------------------------------------------------------------------|

e|---------------------------------------------------------------------------|
B|---------------------------------------------------------------------------|
G|--7-x-x-x--5-x-x-x--7-x-x-x--5-x-x-x--7-x-x-x--5-x-x-x--7-x-x-x--5-x-x-x---|
D|---------------------------------------------------------------------------|
A|---------------------------------------------------------------------------|
E|---------------------------------------------------------------------------|
  tremolo v
e|---------------------------------------------------------------------------|
B|---------------------------------------------------666666666666666666666666|
G|-7-7-7-7-7-7-7-7-7-7-7-7-5-5-5-5-5-5-5-5-5-5-5-5-5-------------------------|
D|---------------------------------------------------------------------------|
A|---------------------------------------------------------------------------|
E|---------------------------------------------------------------------------|

Guitar 2 - repeat x2 (listen for rhythm)

e|------------------------------------------------------------------------------|
B|-------------------------------------------8----------------------------------|
G|-7--7-7-x-x-7--7-7-x-8-7--7-7-x-x-7--7-7-x---7--7-7-x-x-7--7-7-x-x------------|
D|-------------------------------------------------------------------7-brbrbr-5-|
A|------------------------------------------------------------------------------|
E|------------------------------------------------------------------------------|

Verse (section 3)

e|-----------------6-6-6---8-8-8---------------------------------------------|
B|-8-8-8---101010------------------101010-8-8-8------------------------------|
G|-7-7-7---7-7-7---7-7-7---7-7-7---7-7-7--7-7-7--(REPEAT X2)-----------------|
D|---------------------------------------------------------------------------|
A|-6-6-6---6-6-6---6-6-6---6-6-6---6-6-6--6-6-6------------------------------|
E|---------------------------------------------------------------------------|

e|-----------------6-6-6---8-8-8--------------------|--6h8p(x)----------------|
B|-8-8-8---101010------------------101010-8-8-8-----|------------6h8p6--------|
G|-7-7-7---7-7-7---7-7-7---7-7-7---7-7-7--7-7-7-(X2)|-------------------------|
D|-5-5-5---5-5-5---5-5-5---5-5-5---5-5-5--5-5-5-----|-(Listen to the song for-|
A|--------------------------------------------------|--when to play this fill)|
E|--------------------------------------------------|-------------------------|


BREAKDOWN

   Gtr 1 (tremolo)         |  Gtr 2 - just this 1 chord, listen for when to play it  
e|--10--|--8--|--5--|--13--|----------------|
B|--11--|--6--|--6--|--11--|----------------|
G|------|-----|-----|------|----------------|
D|------|-----|-----|------|-----8----------|
A|------|-----|-----|------|-----8----------|
E|------|-----|-----|------|-----6----------|

Guitar 2 then plays this riff until this section ends

e|---------------------------------------------------------------------------|
B|---------------------------------------------------------------------------|
G|-10--10-10-10--10-10\-5-5--5/7-7-7-----10--10-10-10--10-10\-5-5--5/7-7-7---|
D|---------------------------------------------------------------------------|
A|-8---8--8--8---8--8-\-3-3--3/5-5-5-----8---8--8--8---8--8-\-3-3--3/5-5-5---|
E|---------------------------------------------------------------------------|


e|---------------------------------------------------------------------------|
B|---------------------------------------------------------------------------|
G|-3--3-3-3--3-3--7-7--7-7-7-7-----3--3-3-3--3-3--7-7--7-7-7-7---------------|
D|---------------------------------------------------------------------------|
A|-1--1-1-1--1-1--5-5--5-5-5-5-----1--1-1-1--1-1--5-5--5-5-5-5---------------|
E|---------------------------------------------------------------------------|

When the drums change, guitar 1 drops the 4th chord until the end, like so...

e|--10--|--8--|--5--|--5--|---------------|
B|--11--|--6--|--6--|--6--|---------------|
G|------|-----|-----|-----|---------------|
D|------|-----|-----|-----|---------------|
A|------|-----|-----|-----|---------------|
E|------|-----|-----------|---------------|


OUTRO (section 1)

Guitar 1 (Wah effect I think)

e|--------------------------------------------------------------------------------------|
B|--------------------------------------------------------------------------------------|
G|--------------------------------------------------------------------------------------|
D|---------------5--5----------------5--7h8p7----------------5--5-----------------5--5\-|
A|-6-6-6---6-6-6-------6-6-6---6-6-6----------8-6-6-6--6-6-6--------6-6-6---6-6-6-------|
E|--------------------------------------------------------------------------------------|

e|-------------------------5h6p5-----------------------------------6h8------------------|
B|-------------------------------6---------6h8-----------------6h8----------------------|
G|--------------------------------7------------5h7--------------------------------------|
D|---------------5--5----------------------------------------------------------------5--|
A|-6-6-6---6-6-6-------6-6-----------6-6-6---------6-6-6--6-6-6--------6-6-6---6-6-6----|
E|--------------------------------------------------------------------------------------|

Guitar 2

e|--------------------------10b----------------------------------------------|
B|--4~--8/10~--8\4~--8/10~-------------4~--8/10~--8\4--8/3~------------------|
G|---------------------------------------------------------------------------|
D|---------------------------------------------------------------------------|
A|---------------------------------------------------------------------------|
E|---------------------------------------------------------------------------|


OUTRO (section 2)

Guitar 1 (no effect) - repeat x4

e|-5h6p5-------5h6p5---8---5h6p5------5h6p5----------------------------------|
B|-------6-----------6-----------6----------6--------------------------------|
G|---------8-----------------------8----------5------------------------------|
D|---------------------------------------------------------------------------|
A|---------------------------------------------------------------------------|
E|---------------------------------------------------------------------------|

Guitar 2 (Really not sure about this part; it's def tapping, but suggestions welcome!)

   T               T     T      T      T
e|--------------------------------------------|
B|------------------------------15------------|
G|-15p0h3h7p0h3h7--15p0--14p0h3----0h3-15p0---|  (repeat until end)
D|--------------------------------------------|
A|--------------------------------------------|
E|--------------------------------------------|

Song ends on:

e|----------|
B|----------|
G|-7--7--7--|
D|-x--x--x--|
A|-6--6--6--|
E|----------|


************************************

| /   slide up
| \   slide down
| h   hammer-on
| p   pull-off
| ~   vibrato
| +   harmonic
| x   Mute note
| b   Bend
| pb  Pre-bend
| br  Bend release
| pbr Pre-bend release
| brb Bend release bend

************************************
Suggest correction
Creating personal tab
Creating personal tab
You can edit any tab online and save it as your Personal.

You can edit, replace or remove any tab part or add personal notes – all changes will be seen only by you.

Personal tabs can be accessed anytime from any device, even offline.
Learn more »
Give kudos to tab author, rate the tab!
1 2 3 4 5
comments
print report bad tab
guest
You may want to rate the tab now too:
select rating
Wanna post a correction for this tab? Suggest correction