Oops, an error
Loading. Please wait.

Lemon Meringue Tie tab

version 4
version 4

Interactive

5,660 views 15 this week
1 commentread comment
1 2 3 4 5
x 3
add to favorites
×
Save as Personal and add changes to this tab that will be seen only by you. Learn more ›
×
You can save this tab as Personal to edit and correct it or add notes. All changes will be seen only by you. Learn more »
launch autoscroll
font size
0
reset
how to read this tab
guitar tuner
edit
Autoscroll
slow
fast
+/-
esc
set tempo
stop
Song:Lemon Meringue Tie
Band: Dance Gavin Dance
Album: Downtown Battle Mountain
Transcribed by: hardcoreman94

This is my first full length tab. I think its 95% correct. Please Rate.
Enjoy =]

Dropped D Tuning

Intro
E|----------------------------------------------------------------------------|
B|-------------10h12p10-------------------------------10h12p10----------------|
G|--------11-12---------12-11--------------------11-12--------9/11-9--9h11----| x2
D|-12------------------------12-9h12-12---12------------------------12-----9--|
A|---10--------------------------------------10-------------------------------|
D|-----12--------------------------------------12-----------------------------|

Pick 15 and 12 16 times quickly
E|------------------------------------------------------------------------|
B|-15(x16)-12(x16)-15(x16)-12(x16)----------------------------------------|
G|------------------------------------------------------------------------| 
D|------------------------------------------------------------------------|
A|------------------------------------------------------------------------|
D|------------------------------------------------------------------------|

Verse
E|-------------------------------------------------------------------------------|
B|0-10-12-0-12-15-0-15-17-0-10-0-10b11r10\8--0-10-12-0-12-15-0-15-17-0-7-0-7b8r7-|
G|-------------------------------------------------------------------------------|
D|-------------------------------------------------------------------------------|
A|-------------------------------------------------------------------------------|
D|-------------------------------------------------------------------------------|

E|------------------------------------------------------------------------------------|
B|-0-10-12-0-12-15-0-15-17-0-10-0-10b11r10\8--0-10-12-0-12-15-0-15-17-0-19-0-19b20r19-|
G|------------------------------------------------------------------------------------|
D|------------------------------------------------------------------------------------|
A|------------------------------------------------------------------------------------|
D|------------------------------------------------------------------------------------|

Repeat the two parts above as needed.

E|------------------------------------------------------------------------------------|
B|-0-10-12-0-12-15-0-15-17-0-10-0-10b11r10\8--0-10-12-0-12-15-0-15-17-0-19-0-19b20r19-|
G|------------------------------------------------------------------------------------|
D|------------------------------------------------------------------------------------|
A|------------------------------------------------------------------------------------|
D|------------------------------------------------------------------------------------|

End riff above with riff below

E|------10-----------------12-----12---12-----|
B|-----7---------------10-----10----10---10---|
G|----7---9-----11---12--12-----12----12---12-|
D|-7-9----------------------------------------|
A|--------------------------------------------|
D|--------------------------------------------|

E|-------------------------------------------------------------------------------|
B|0-10-12-0-12-15-0-15-17-0-10-0-10b11r10\8--0-10-12-0-12-15-0-15-17-0-7-0-7b8r7-|
G|-------------------------------------------------------------------------------|
D|-------------------------------------------------------------------------------|
A|-------------------------------------------------------------------------------|
D|-------------------------------------------------------------------------------|

E|------------------------------------------------------------------------------------|
B|-0-10-12-0-12-15-0-15-17-0-10-0-10b11r10\8--0-10-12-0-12-15-0-15-17-0-19-0-19b20r19-|
G|------------------------------------------------------------------------------------|
D|------------------------------------------------------------------------------------|
A|------------------------------------------------------------------------------------|
D|------------------------------------------------------------------------------------|

Repeat the two riffs above as needed.
End on riff below.

E|----------------------------------------------------------------------------|
B|-0-10-12-0-12-15-0-15-17-0-7-0-7b8r7----------------------------------------|
G|------------------------------------------------111111-999------------------|
D|--------------------------------------10-----7--------------121212-777-999--|
A|--------------------------------------10-x8--7-x8---------------------------|
D|--------------------------------------10-----7------------------------------|

Riff continues
Listen to the song to get the rhythm for the tremolo picking part below
Chorus
E|---------17t-15t-14t--------------------------------------17t-15t-14t---------------|
B|-12t-15t------------15t-12t-15t-10t-12t-12p0-12p0--12t-15t------------15t-17t--19t--|
G|------------------------------------------------------------------------------------|
D|------------------------------------------------------------------------------------|
A|------------------------------------------------------------------------------------|
D|------------------------------------------------------------------------------------|

play chords below to rhythm of the song
Bridge
E|--77-777-7-7-7-7-7777-77--1414-141414-14-14-14-14-14141414-1414---------|
B|--55-555-5-5-5-5-5555-55--1212-121212-12-12-12-12-12121212-1212---------|
G|--55-555-5-5-5-5-5555-55--1212-121212-12-12-12-12-12121212-1212---------|
D|------------------------------------------------------------------------| x2
A|------------------------------------------------------------------------|
D|------------------------------------------------------------------------|

E|-----------------------------------------------------------|
B|-----------------------------------------------------------|
G|-----------------------------------------------------------|  repeat as necessary
D|-555-/-121212-\-555-/-121212-\-555-/-121212-\-555-/-121212-|
A|-----------------------------------------------------------|
D|-----------------------------------------------------------|

repeat verse and then chorus
End with chord below

E|-77-777-7-7-7-7-7777-77--|
B|-55-555-5-5-5-5-5555-55--|
G|-55-555-5-5-5-5-5555-55--|
D|-------------------------|
A|-------------------------|
E|-------------------------|


Tablature Legend
----------------
 h   - hammer-on
 p   - pull-off
 b   - bend
 pb  - pre-bend
 r   - bend release (if no number after the r, then release immediately)
 /\  - slide into or out of (from/to "nowhere")
 s   - legato slide
 S   - shift slide
 - natural harmonic
[n]  - artificial harmonic
n(n) - tapped harmonic
 ~   - vibrato
 tr  - trill
 T   - tap
 TP  - trem. picking
 PM  - palm muting
\n/  - tremolo bar dip; n = amount to dip
 \n  - tremolo bar down
 n/  - tremolo bar up
/n\  - tremolo bar inverted dip
 =   - hold bend; also acts as connecting device for hammers/pulls
 <> - volume swell (louder/softer)
 x   - on rhythm slash represents muted slash
 o   - on rhythm slash represents single note slash

            
            
Suggest correction
Creating personal tab
Creating personal tab
You can edit any tab online and save it as your Personal.

You can edit, replace or remove any tab part or add personal notes – all changes will be seen only by you.

Personal tabs can be accessed anytime from any device, even offline.
Learn more »
Give kudos to tab author, rate the tab!
1 2 3 4 5
comments
print report bad tab
1 comment total.
0 reply
KeepSingingNow 50 Jun 07, 2012 08:22 AM

most of the other tabs couldnt even get the pull off riff correct. i really appreciate that this is on here. well done bro. but finish it! and tell what effects he uses.

guest
You may want to rate the tab now too:
select rating
Wanna post a correction for this tab? Suggest correction