Oops, an error
Loading. Please wait.

Nasa intro tab

version 1
version 1

Intro

Whole song

Interactive

8,352 views 3 this week
2 commentsread comments
1 2 3 4 5
2 more votes to show rating
add to favorites
×
Save as Personal and add changes to this tab that will be seen only by you. Learn more ›
×
You can save this tab as Personal to edit and correct it or add notes. All changes will be seen only by you. Learn more »
launch autoscroll
font size
0
reset
how to read this tab
guitar tuner
edit
Autoscroll
slow
fast
+/-
esc
set tempo
stop
-------------------------------------------------------------------------------
                             NASA - Dance Gavin Dance
-------------------------------------------------------------------------------
Tabbed by:
Email:

Tuning:

guitar 1(zac garren) intro:

e|------------12---14----| x3
B|-------12-x----x----x15|
G|-----------------------|
D|-----------------------|
A|-----------------------|
E|-----------------------|

e|---------------------------|
B|-8-0-0-10-0-0-8-0-0-10-0-0-|
G|---------------------------|
D|---------------------------|
A|---------------------------|
E|---------------------------|
you do this part like 6 times a then it end up with:
e|-----------|
B|-12~~~~~~~-|
G|-----------|
D|-----------|
A|-----------|
E|-----------|

soon im going to do te guitar 2 and the all tab...


| h  hammer-on
| ~  vibrato

===============================================================================
Suggest correction
Creating personal tab
Creating personal tab
You can edit any tab online and save it as your Personal.

You can edit, replace or remove any tab part or add personal notes – all changes will be seen only by you.

Personal tabs can be accessed anytime from any device, even offline.
Learn more »
Give kudos to tab author, rate the tab!
1 2 3 4 5
comments
print report bad tab
2 comments total.
0 reply
Indie Purist 949 Oct 21, 2009 02:12 PM

e|------------12---14----|
B|-------12-x----x----x15|
G|-----------------------|
D|-------10--------------|
A|-----------------------|
E|-----------------------|

I'd say this sounds a little more accurate, I can't figure out much of the 2nd track at the moment.

-1 reply
thekillers798 10 Dec 15, 2009 11:46 AM

Why would you post a tab with a measure of music??? Figure it out then tab it dude.

guest
You may want to rate the tab now too:
select rating
Wanna post a correction for this tab? Suggest correction