Oops, an error
Loading. Please wait.

Open Your Eyes And Look North guitar pro

version 2
version 2

Whole song

Interactive

4,413 views 9 this week
3 commentsread comments
1 2 3 4 5
x 9
add to favorites
guitar tuner
Autoscroll
slow
fast
+/-
esc
set tempo
stop
"Open Your Eyes And Look North"
demo version
Play now

or get full version for Free

×
Get full version now!
Learn and play this song
in Tab Pro
Try for free

or get $10 off Welcome Bonus

Get welcome bonus
Get access to Tab Pro version of “Open Your Eyes And Look North”!
Tab Pro is a premium guitar tab service, available on PC, Mac, iOS and Android
TRY FOR FREE
Your download will start in 7 seconds
×
Like this song? We have more! Follow us on Facebook for daily tips, lessons and other guitar-related content.
To download “Open Your Eyes And Look North” Guitar Pro tab click button below
Please note that you must have Guitar Pro software installed on your
computer in order to view this file.
Suggest correction
comments
report bad tab
3 comments total.
0 reply
Bassman 561 68 Oct 15, 2009 04:23 AM

damn good job man. 5 stars

0 reply
§ynysterSte 52 Oct 16, 2009 08:09 AM

epic man, must of took you ages. 5 stars.

0 reply
TalkingToAngels 150 Nov 13, 2009 09:53 AM

amazing ... way better than anything that was on here before.
only thing I can say about it is that there are chords played on the 2nd guitar from measures 9-12, but I'm not 100% what the chords are.

PM        
W. H
-----------------------------|
-----------------------------|
--8----------------11--------|
--6----------------11--------|
--6-----------------9--------|
-----------------------------|

W W
------------------------------------|
------------------------------------|
--6----------------9----------------|
--4----------------9----------------|
--4----------------7----------------|
------------------------------------|

PM
W. H
-----------------------------|
-----------------------------|
--8----------------11--------|
--6----------------11--------|
--6-----------------9--------|
-----------------------------|

W W
-------------------------------------|
-------------------------------------|
--8----------------11----------------|
--6----------------11----------------|
--6-----------------9----------------|
-------------------------------------|

i think, but idk for sure

guest