Oops, an error
Loading. Please wait.

Philosopher King tab

532 views 12 this week
no commentswrite comment
1 2 3 4 5
1 last vote to show rating
add to favorites
×
Save as Personal and add changes to this tab that will be seen only by you. Learn more ›
×
You can save this tab as Personal to edit and correct it or add notes. All changes will be seen only by you. Learn more »
launch autoscroll
font size
0
reset
how to read this tab
guitar tuner
edit
Autoscroll
slow
fast
+/-
esc
set tempo
stop
About this tab version
I put in capo information, and I explained how to play certain elements. Was this info helpful? Yes No
[Intro]
E|------------------------------|-------------------------------|
B|------------------------------|-------------------------------|
G|------------------------------|-------------------------------|
D|------------------------------|12-8p5-------------------------|
A|--------------12-8p5-12-8p5---|-------12-8p5--------12-8p5----|
D|12-8p5-12-8p5-----------------|--------------12-8p5-----------|
  T      T      T      T         T      T      T      T
 [            x3             ]   1st Ending

E|------------------------------|
B|------------------------------|
G|------------------------------|
D|12-8p5------------------------|
A|-------12-8p5-----------------|
D|--------------12-8p5----------|
  T      T      T
  2nd Ending

[Verse 1]
E|---------17-|--------------|----------------------------------|
B|---------x--|--------------|----------------------------------|
G|---------14-|--------------|----------------------------------| x4
D|5-5-5-8/----|-111111111111-|-111111333333---------------------|
A|5-5-5-------|-111111111111-|-111111333333---------------------|
D|5-5-5-------|-111111111111-|-111111333333---------------------|
 [    x3     ]  1st Ending     2nd Ending
                1’s not 11’s
 Play 1st ending 1st and 3rd time, 2nd ending 2nd and 4th time

[Chorus 1]
(If I fall…)
E|--------------------------------------------------------------|
B|--------------------------------------------------------------|
G|--------------------------------------------------------------|
D|8-5p0-10-5p0-8-8-5p0-10-5p0-8-8-5p0-10-5p0--------------------|
A|--------------------------------------------------------------|
D|--------------------------------------------------------------|
  T     T      T T     T      T T     T

E|--------------------------------------------------------------|
B|--------------------------------------------------------------|
G|7-10-0----------7-10-0----------7-10-0------------------------|
D|-------8-10-0-8--------8-10-0-8--------8-10-0-----------------|
A|--------------------------------------------------------------|
D|--------------------------------------------------------------|
    T      T    T   T    T      T   T      T
 This pattern, tap the first note with finger hand, second note with    your picking/tapping hand, then pull
off to an open string.

E|--------------------------------------------------------------|
B|--------------------------------------------------------------|
G|--------------------------------------------------------------|
D|8-5-8-5p3h5-8-8-5-8-5p3h5-8-8-5-8-5p3h5-----------------------|
A|--------------------------------------------------------------|
D|--------------------------------------------------------------|
  T   T       T T   T       T T   T

E|------------------15-13-| This whole section is played twice.
B|13-11----15-10----------| First time around, pick these notes 3
G|------10-------10-------| times each. Second time around, pick
D|------------------------| these notes just one each.
A|------------------------|
D|------------------------|

[Verse 2]
E|--------------------------------------------------------------|
B|--------------------------------------------------------------|
G|--------------------------------------------------------------| x2
D|--------------------------3-8-0-------------------------------|
A|--------8-1p0-------1-8-0-------1-8-0-------------------------|
D|0-0-0-0-------8-3p0-------------------1-1-1-------------------|
          T     T       T     T     T
 [        x3         ]

E|--------------------------------------------------------------|
B|--------------------------------------------------------------|
G|--------------------------------------------------------------| x2
D|------------------------------3-8-0---------------------------|
A|------------8-1p0-------1-8-0-------1-8-0---------------------|
D|0-0-0-0-0-0-------8-3p0-------------------1-1-1---------------|
              T     T       T     T     T
 [          x3           ]

E|--------------------------------------------------------------|
B|-----------14-14----------14-14-14-14-------------------------|
G|-----------17-17----------17-17-17-17-------------------------|
D|--------------------------------------------------------------|
A|--------------------------------------------------------------|
D|0-0-0-0--0--------0-0-0-0-------------------------------------|
 [       x3       ]

E|--------------------------------------------------------------|
B|-------------------------------10-10-10-10--------------------|
G|-------------------------------13-13-13-13--------------------|
D|--------12p0-9-11p0-9-----------------------------------------|
A|--------------------------------------------------------------|
D|0-0-0-0----------------0-0-0-0--------------------------------|
 [         x3          ]

[Chorus 2] 
(I will run laps…)
E|------------------| All of these chords are played for 4 beats and
B|10---5-5-10-5---5-| the strumming is straightforward.
G|7--6-2-2-7--2-6-2-|
D|8--7-3-2-8--3-7-2-|
A|8--5-3-3-8--3-5-3-|
D|8----3-2-8--3---2-|

E|---------17-------|
B|------------15-17-|
G|---17-14----------| x16
D|15----------------|
A|------------------|
D|------------------|

E|-------------------------------8------------------------------|
B|---------10------8------5------5------------------------------|
G|10-9--10-10------9------5------5------------------------------| x4
D|10-10-10-x--(x4)-x-(x4)-x-(x4)-7-(x4)-------------------------|
A|8--8--8--8-------7------3------0------------------------------|
D|8--8--8-------------------------------------------------------|

Repeat certain elements from the 2nd verse and your first chords from the 2nd “chorus” section, and that’s the
end.
 

************************************

| p  Pull-off
| x  Skip string
| /  Slide up
| h  Hammer-on
| T  Tap 

************************************

            
            
Suggest correction
Creating personal tab
Creating personal tab
You can edit any tab online and save it as your Personal.

You can edit, replace or remove any tab part or add personal notes – all changes will be seen only by you.

Personal tabs can be accessed anytime from any device, even offline.
Learn more »
Give kudos to tab author, rate the tab!
1 2 3 4 5
comments
print report bad tab
guest
You may want to rate the tab now too:
select rating
Wanna post a correction for this tab? Suggest correction