Oops, an error
Loading. Please wait.

The Importance Of Cocaine tab

3,762 views 3 this week
1 commentread comment
1 2 3 4 5
x 5
add to favorites
×
Save as Personal and add changes to this tab that will be seen only by you. Learn more ›
×
You can save this tab as Personal to edit and correct it or add notes. All changes will be seen only by you. Learn more »
launch autoscroll
font size
0
reset
how to read this tab
guitar tuner
edit
Autoscroll
slow
fast
+/-
esc
set tempo
stop
-------------------------------------------------------------------------------
                           THE IMPORTANCE OF COCAINE
                                Dance Gavin Dance
-------------------------------------------------------------------------------
Tabbed by: KYLE
Email: edwrds1993@yahoo.com

I did this tab because nobody has one. I know this tab isn't great, but hopefully 
someone can work off of it and make a better one.

Tuning:Drop D

(Progression 1)
e|---0--0--0----0--0--0----0--0--0----0--0--0--|
B|---10-10-10---10-10-10---10-10-10---10-10-10-|
G|---9--9--9----9--9--9----9--9--9----9--9--9--|
D|-0----------0----------0----------0----------|
A|-8----------8----------8----------8----------|
D|-0----------0----------0----------0----------|

e|---0--0--0----0--0--0----0--0--0----0--0--0--|
B|---8--8--8----8--8--8----8--8--8----8--8--8--|
G|---7--7--7----7--7--7----7--7--7----7--7--7--|
D|-0----------0----------0----------0----------|
A|-5----------5----------5----------5----------|
D|-0----------0----------0----------0----------| 
Play the whole progression 6 times


[0:58]
e|------------------8-----------------8----------------8----------------8-|
B|---------9h10p9h10---------9h10p9h10--------9h10p9h10--------9h10p9h10--|
G|--10/9/7------------10/9/7------------17/14------------17/14------------|
D|---x-x-x-------------x-x-x-------------x--x-------------x--x------------|
A|---8/7/5-------------8/7/5------------15/12------------15/12------------|
D|------------------------------------------------------------------------|

e|------------------8-----------------8----------------8----------------8-|
B|---------9h10p9h10---------9h10p9h10--------9h10p9h10--------9h10p9h10--|
G|--10/9/7------------10/9/7------------17/14------------17/14------------|
D|---x-x-x-------------x-x-x-------------x--x-------------x--x------------|
A|---8/7/5-------------8/7/5------------15/12------------15/12------------|
D|------------------------------------------------------------------------|


[1:18]
e|---0--0--0----0--0--0----0--0--0----0--0--0--|
B|---10-10-10---10-10-10---10-10-10---10-10-10-|
G|---9--9--9----9--9--9----9--9--9----9--9--9--|
D|-0----------0----------0----------0----------|
A|-8----------8----------8----------8----------|
D|-0----------0----------0----------0----------|

e|---0--0--0----0--0--0----0--0--0----0--0--0--|
B|---8--8--8----8--8--8----8--8--8----8--8--8--|
G|---7--7--7----7--7--7----7--7--7----7--7--7--|
D|-0----------0----------0----------0----------|
A|-5----------5----------5----------5----------|
D|-0----------0----------0----------0----------| 

e|---0--0--0----0--0--0----0--0--0----0--0--0--|
B|---10-10-10---10-10-10---10-10-10---10-10-10-|
G|---9--9--9----9--9--9----9--9--9----9--9--9--|
D|-0----------0----------0----------0----------|
A|-8----------8----------8----------8----------|
D|-0----------0----------0----------0----------|

e|---0--0--0----0--0--0----0--0--0----0--0--0--|
B|---8--8--8----8--8--8----8--8--8----8--8--8--|
G|---7--7--7----7--7--7----7--7--7----7--7--7--|
D|-0----------0----------0----------0----------|
A|-5----------5----------5----------5----------|
D|-0----------0----------0----------0----------| 


[1:36]
e|------------------8-----------------8----------------8----------------8-|
B|---------9h10p9h10---------9h10p9h10--------9h10p9h10--------9h10p9h10--|
G|--10/9/7------------10/9/7------------17/14------------17/14------------|
D|---x-x-x-------------x-x-x-------------x--x-------------x--x------------|
A|---8/7/5-------------8/7/5------------15/12------------15/12------------|
D|------------------------------------------------------------------------|

e|------------------8-----------------8----------------8----------------8-|
B|---------9h10p9h10---------9h10p9h10--------9h10p9h10--------9h10p9h10--|
G|--10/9/7------------10/9/7------------17/14------------17/14------------|
D|---x-x-x-------------x-x-x-------------x--x-------------x--x------------|
A|---8/7/5-------------8/7/5------------15/12------------15/12------------|
D|------------------------------------------------------------------------|


[1:55]
e|--------------------------|
B|--------------------------|
G|--------------------------|
D|-222222xxxxxx555555xxxxxx-|
A|-222222xxxxxx555555xxxxxx-|
D|-222222xxxxxx555555xxxxxx-|

e|-----------------------------------------------------|
B|-----------------------------------------------------|
G|-----------------------------------------------------|
D|---10-9-7-5p0---10-9-7-5p0---10-9-7-5p0---10-9-7-5p0-|
A|-7------------7------------7------------7------------|
D|-----------------------------------------------------| 

e|--------------------------|
B|--------------------------|
G|--------------------------|
D|-222222xxxxxx555555xxxxxx-|
A|-222222xxxxxx555555xxxxxx-|
D|-222222xxxxxx555555xxxxxx-|

e|-----------------------------------------------------|
B|-----------------------------------------------------|
G|-----------------------------------------------------|
D|---10-9-7-5p0---10-9-7-5p0---10-9-7-5p0---10-9-7-5p0-|
A|-7------------7------------7------------7------------|
D|-----------------------------------------------------| 

e|--------------------------|
B|--------------------------|
G|--------------------------|
D|-222222xxxxxx555555xxxxxx-|
A|-222222xxxxxx555555xxxxxx-|
D|-222222xxxxxx555555xxxxxx-|

e|-----------------------------------------------------|
B|-----------------------------------------------------|
G|-----------------------------------------------------|
D|---10-9-7-5p0---10-9-7-5p0---10-9-7-5p0---10-9-7-5p0-|
A|-7------------7------------7------------7------------|
D|-----------------------------------------------------| 

e|--------------------------|
B|--------------------------|
G|--------------------------|
D|-222222xxxxxx555555xxxxxx-|
A|-222222xxxxxx555555xxxxxx-|
D|-222222xxxxxx555555xxxxxx-|


[2:30]
e|--------------------------------------------------------------|
B|----55----5----------5------5----55----5----------5------5----|
G|----88----8----------8------8----88----8----------8------8----|
D|-00----00---00000000---0000---00----00---00000000---0000---0~-|
A|-00----00---00000000---0000---00----00---00000000---0000---0~-|
D|-00----00---00000000---0000---00----00---00000000---0000---0~-| 
   ..    ..   ........   ....   ..    ..   ........   ....


[2:43]
e|--------------------------|
B|--6--6--6--6--8--8--6--6--|
G|---7--7--7--7--7--7--7--7-|
D|-5--5--5--5--5--5--5--5---|
A|--------------------------|
D|--------------------------|x5


[3:31]
e|------------------------------------------|
B|----8-------------------------------------|
G|---11--17/15/14\15/14\15------------------|
D|-00-----x--x--x--x--x--x-8888888877777777-|
A|-00----15/13/12\13/12\13-8888888877777777-|
D|-00----------------------8888888877777777-|x4 
   ..


[3:50]
e|-------------------------------------------|
B|----9----------9----------9-------55555555-|
G|---12-9h10----12-9h10----12-9h10--88888888-|
D|-00--------77---------88-------------------|
A|-00--------77---------88-------------------|
D|-00--------77---------88-------------------|x4
   ..        ..         ..


[4:14]
e|---------------------------------------------------------|
B|----55----5----------5------5----55----5----------5------|
G|----88----8----------8------8----88----8----------8------|
D|-00----00---00000000---0000---00----00---00000000---0000-|
A|-00----00---00000000---0000---00----00---00000000---0000-|
D|-00----00---00000000---0000---00----00---00000000---0000-| 
   ..    ..   ........   ....   ..    ..   ........   ....

e|--------------------------------------------------------------------|
B|----66----6----------6------6-----9-9-----9-----------9-------9-----|
G|----99----9----------9------9----1212----12----------12------12-----|
D|-00----00---00000000---0000---00------00----00000000----0000----000-|
A|-00----00---00000000---0000---00------00----00000000----0000----000-|
D|-00----00---00000000---0000---00------00----00000000----0000----000-| 
   ..    ..   ........   ....   ..      ..    ........    ....    ...


            
            
Suggest correction
Creating personal tab
Creating personal tab
You can edit any tab online and save it as your Personal.

You can edit, replace or remove any tab part or add personal notes – all changes will be seen only by you.

Personal tabs can be accessed anytime from any device, even offline.
Learn more »
comments
print report bad tab
1 comment total.
-1 reply
sandra.gajic.5 10 Dec 20, 2015 10:45 AM

Instead of

e|---0--0--0----0--0--0----0--0--0----0--0--0--|
B|---8--8--8----8--8--8----8--8--8----8--8--8--|
G|---7--7--7----7--7--7----7--7--7----7--7--7--|
D|-0----------0----------0----------0----------|
A|-5----------5----------5----------5----------|
D|-0----------0----------0----------0----------|


i would play

e|---0--0--0----0--0--0----0--0--0----0--0--0--|
B|---0--0--0----0--0--0----0--0--0----0--0--0--|
G|---6--6--6--6--6--6--6----6--6--6----6--6--6--|
D|-7----------7----------7----------7----------|
A|-5----------5----------5----------5----------|
D|-0----------0----------0----------0----------|

guest
You may want to rate the tab now too:
select rating
Wanna post a correction for this tab? Suggest correction