Oops, an error
Loading. Please wait.

The Jiggler Tab

91 views 1 this week
no commentswrite comment
1 2 3 4 5
3 more votes to show rating
add to favorites
launch autoscroll
font size
0
reset
how to read this tab
guitar tuner
Autoscroll
slow
fast
+/-
esc
set tempo
stop
Help us to improve Ultimate-Guitar.com Take our survey!
×
Author
Difficulty
novice
About this tab version
NO habian tabs de esta cancion. Was this info helpful? Yes No
[Intro]

e|---------------------------------------------------------------------------|
B|----8------8------8------8----------5------5-----5-----5-------------------|
G|------9------9------9------9----------7------7-----7-----7-----------------|
D|---------------------------------------------------------------------------|
A|--7------7------7------7----------5------5------5-----5--------------------|
E|---------------------------------------------------------------------------|


e|---------------------------------------------------------------------------|
B|----8------8------8----8--10b--8--------5------5-----5-----5---------------|
G|------9------9------9---------------------7------7-----7-----7-------------|
D|---------------------------------------------------------------------------|
A|--7------7------7---------------------5------5------5-----5----------------|
E|---------------------------------------------------------------------------|



************************************


| b   Bend


************************************
Suggest correction
Give kudos to tab author, rate the tab!
1 2 3 4 5
comments
print report bad tab
guest
You may want to rate the tab now too:
select rating
Wanna post a correction for this tab? Suggest correction