Oops, an error
Loading. Please wait.

Uneasy Hearts Weigh The Most Tab

version 2
version 2

Whole song

Interactive

85,309 views 174 this week
17 commentsread comments
1 2 3 4 5
x 32
add to favorites
launch autoscroll
font size
0
reset
how to read this tab
guitar tuner
Autoscroll
slow
fast
+/-
esc
set tempo
stop
Help us to improve Ultimate-Guitar.com Take our survey!
×
Author
Tuning
D A D G B E
[Intro / Verse]

e|-------9------------9--------------4------------4-------------------------|
B|------10-----------10-------------5------------5--------------------------|
G|-----11-----------11-------------6------------6---------------------------|
D|----12-----------12-------------7------------7----------------------------|
A|----------9-9-----------9-9-----------4-4---------------4-------7---------|
D|--9------9---9--9------9---9---4-----4---4--4-------4-------7-------------|


e|-------9------------9--------------4------------4-------------------------|
B|------10-----------10-------------5------------5--------------------------|
G|-----11-----------11-------------6------------6---------------------------|
D|----12-----------12-------------7------------7----------------------------|
A|----------9-9-----------9-9-----------4-4-------------4---4-4-------------|
D|--9------9---9--9------9---9---4-----4---4--4-------4---------------------|


Guitar 2
e|--7/9-\7~------5-5-5--/7\--------7/9\7~------5-5-5--/7\-------------------|
B|--9/10\9~------7-7-7--/9\--------7/9\7~------5-5-5--/7\-------------------|
G|--------------------------------------------------------------------------|
D|--------------------------------------------------------------------------|
A|--------------------------------------------------------------------------|
D|--------------------------------------------------------------------------|


That's when you start playing this bit. 


[Chorus 1]

e|--------------------------------------------------------------------------|
B|--------------------------------------------------------------------------|
G|--------------------------------------------------------------------------|
D|--7/9-9-9-9-7-9-11-7-4-7-------------------2/4-4-4-4-2-4-9-7--------------|
A|--x/x-x-x-x-x-x-x--x-x-x--play that twice--x/x-x-x-x-x-x-x-x-twice--------|
D|--7/9-9-9-9-7-9-11-7-4-7-------------------2/4-4-4-4-2-4-9-7--------------|

it changes a little
Guitar 1
e|--------------------------------------------------------------------------|
B|--------------------------------------------------------------------------|
G|----------------------------------------------------|------twice------|---|
D|--7/9-9-9-9-7-9-11-7-4-7--7/9-9-9-9-7-9-14-12-11-9\-|2/4-4-4-4-2-4-9-7|---|
A|--x/x-x-x-x-x-x-x--x-x-x--x/x-x-x-x-x-x-x--x--x--x\-|x/x-x-x-x-x-x-x-x|---|
D|--7/9-9-9-9-7-9-11-7-4-7--7/9-9-9-9-7-9-14-12-11-7\-|2/4-4-4-4-2-4-9-7|---|

Guitar2
e|--------------------------------------------------------------------------|
B|--------------------------------------------------------------------------|
G|--------------------------------------------------------------------------|
D|--7/9-9-9-9-7-9-11-7-4-7-------------------2/4-4-4-4-2-4-9-7--------------|
A|--x/x-x-x-x-x-x-x--x-x-x--play that twice--x/x-x-x-x-x-x-x-x-twice--------|
D|--7/9-9-9-9-7-9-11-7-4-7-------------------2/4-4-4-4-2-4-9-7--------------|

Play the INTRO/VERSE part after that. 
The solo is also going on.
Goes like this..

SOLO Guitar 2
e|--14b---17-15-14-------------14\----21-17-------17-21-17------17-19~------|
B|--17b------------17-16-14--17-------------19--19--------19--19------------|
G|--------------------------------------------18------------18--------------|
D|--------------------------------------------------------------------------|
A|--------------------------------------------------------------------------|
D|--------------------------------------------------------------------------|

These are quiet            |exactly here he starts singing
e|---------------------------------------------------------------------------|
B|--17-19-17-19~----17-19-17----17----------------17-----------17------------|
G|--------------------------18-18-18----18-16--18---18-18-16-18---18--16--14~|
D|---------------------------------------------------------------------------|
A|---------------------------------------------------------------------------|
D|---------------------------------------------------------------------------|

e|---------------------------------------------------------------------------|
B|---13~-11--13~-------------------------------------------------------------|
G|---------------------------------------------------------------------------|
D|---------------------------------------------------------------------------|
A|---------------------------------------------------------------------------|
D|---------------------------------------------------------------------------|


Back to the INTRO/CHORUS.

Guitar 2 does something different towards the end of it.
But I'm not exactly sure what he does
Then CHORUS 1 again.
I call it CHORUS 1 cuz this one is
 

[Chorus 2]

("Holy shit she smells like heaven")
Guitar 1. Just play chords a necessary. I don't think I need to
type them in a million times. The url of the video
is right up there. 
e|----------------9--------------4------------------------------------------|
B|--7-------------10-------------5------------9-----------------------------|x2
G|--7-->chord 1---11-->chord 2---6-->chord 3--9->chord4---------------------|
D|--x-------------12-------------7------------9-----------------------------|
A|--5-----------------------------------------------------------------------|
D|--------------------------------------------------------------------------|
Guitar 2
e|---------------------------------------------------------------------------|
B|---------------------------------------------------------------------------|
G|---------------------------------------------------------------------------|
D|---9-9-7-9-7-9--9-11-9-7----7/9-9-7-9-7-9--9-11-9-7----7/9-9-7--7-9-7------|
A|-------------------------9--------------------------9----------9------9-7-9|
D|---------------------------------------------------------------------------|

e|--------------------------------------------------------------------------|
B|--------------------------------------------------------------------------|
G|---7/9-9-7-7-9-7--------------play-that-twice-----------------------------|
D|----------9------9-9\-----------------------------------------------------|
A|--------------------------------------------------------------------------|
D|--------------------------------------------------------------------------|
Then you play.


[Breakdown]

(laughs) Use this little chord and play along with the song.Play
it as many times necessary. 
e|--9--9--9------9--9--9--9--------------------------------------------------|
B|--x--x--x------x--x--x--x--------------------------------------------------|
G|--7--7--7------7--7--7--7--------------------------------------------------|
D|---------------------------------------------------------------------------|
A|---------------------------------------------------------------------------|
D|---------------------------------------------------------------------------|

(yells) play this over n over. Throw in a couple
of slides when needed. 
e|---------------------------------------------------------------------------|
B|---------------------------------------------------------------------------|
G|---------------------------------------------------------------------------|
D|---------------------------------------------------------------------------|
A|---------------------------------------------------------------------------|
D|---4--4--4------14\--4-4-4-------------------------------------------------|

Then you Play CHORUS 2 again. 


************************************

| x  Dead note
| b  Bend
| /  Slide up
| \  Slide down
| ~  Vibrato

************************************
Suggest correction
comments
print report bad tab
17 comments total. Showing first comments.
0 reply
andrew12398 286 May 04, 2009 10:47 PM

First notes in the solo are wrong, other than that everything seems spot on, I'll give it a 5.

0 reply
guitaristsasha 41 May 07, 2009 08:15 PM

yess!
thankyou for posting this.
:)

0 reply
Indie Purist 949 Jun 02, 2009 12:10 PM

I noticed the beginning of the solo sounded off too, fantastic job though!

guest
You may want to rate the tab now too:
select rating
Wanna post a correction for this tab? Suggest correction